  0
SECTION
  2
HEADER
  9
$ACADVER
  1
AC1015
  9
$ACADMAINTVER
 70
     6
  9
$DWGCODEPAGE
  3
ANSI_1252
  9
$INSBASE
 10
0.0
 20
0.0
 30
0.0
  9
$EXTMIN
 10
0.0
 20
0.0
 30
0.0
  9
$EXTMAX
 10
431.8
 20
279.4
 30
0.0
  9
$LIMMIN
 10
0.0
 20
0.0
  9
$LIMMAX
 10
431.8
 20
279.4
  9
$ORTHOMODE
 70
     0
  9
$REGENMODE
 70
     1
  9
$FILLMODE
 70
     1
  9
$QTEXTMODE
 70
     0
  9
$MIRRTEXT
 70
     1
  9
$LTSCALE
 40
1.0
  9
$ATTMODE
 70
     1
  9
$TEXTSIZE
 40
4.9388888889
  9
$TRACEWID
 40
1.0
  9
$TEXTSTYLE
  7
Standard
  9
$CLAYER
  8
0
  9
$CELTYPE
  6
ByLayer
  9
$CECOLOR
 62
   256
  9
$CELTSCALE
 40
1.0
  9
$DISPSILH
 70
     0
  9
$DIMSCALE
 40
1.0
  9
$DIMASZ
 40
5.1366373698
  9
$DIMEXO
 40
2.0
  9
$DIMDLI
 40
3.75
  9
$DIMRND
 40
0.0
  9
$DIMDLE
 40
0.0
  9
$DIMEXE
 40
2.0
  9
$DIMTP
 40
0.0
  9
$DIMTM
 40
0.0
  9
$DIMTXT
 40
7.0555555556
  9
$DIMCEN
 40
2.5
  9
$DIMTSZ
 40
0.0
  9
$DIMTOL
 70
     0
  9
$DIMLIM
 70
     0
  9
$DIMTIH
 70
     1
  9
$DIMTOH
 70
     1
  9
$DIMSE1
 70
     0
  9
$DIMSE2
 70
     0
  9
$DIMTAD
 70
     1
  9
$DIMZIN
 70
     0
  9
$DIMBLK
  1

  9
$DIMASO
 70
     1
  9
$DIMSHO
 70
     1
  9
$DIMPOST
  1

  9
$DIMAPOST
  1

  9
$DIMALT
 70
     0
  9
$DIMALTD
 70
     3
  9
$DIMALTF
 40
0.0393700787
  9
$DIMLFAC
 40
1.0
  9
$DIMTOFL
 70
     1
  9
$DIMTVP
 40
0.0
  9
$DIMTIX
 70
     0
  9
$DIMSOXD
 70
     0
  9
$DIMSAH
 70
     0
  9
$DIMBLK1
  1

  9
$DIMBLK2
  1

  9
$DIMSTYLE
  2
ISO-25
  9
$DIMCLRD
 70
     0
  9
$DIMCLRE
 70
     0
  9
$DIMCLRT
 70
     0
  9
$DIMTFAC
 40
1.0
  9
$DIMGAP
 40
2.0
  9
$DIMJUST
 70
     0
  9
$DIMSD1
 70
     0
  9
$DIMSD2
 70
     0
  9
$DIMTOLJ
 70
     0
  9
$DIMTZIN
 70
     0
  9
$DIMALTZ
 70
     0
  9
$DIMALTTZ
 70
     0
  9
$DIMUPT
 70
     0
  9
$DIMDEC
 70
     2
  9
$DIMTDEC
 70
     2
  9
$DIMALTU
 70
     2
  9
$DIMALTTD
 70
     3
  9
$DIMTXSTY
  7
Standard
  9
$DIMAUNIT
 70
     0
  9
$DIMADEC
 70
     2
  9
$DIMALTRND
 40
0.0
  9
$DIMAZIN
 70
     0
  9
$DIMDSEP
 70
    44
  9
$DIMATFIT
 70
     3
  9
$DIMFRAC
 70
     0
  9
$DIMLDRBLK
  1

  9
$DIMLUNIT
 70
     2
  9
$DIMLWD
 70
    -2
  9
$DIMLWE
 70
    -2
  9
$DIMTMOVE
 70
     0
  9
$LUNITS
 70
     2
  9
$LUPREC
 70
     2
  9
$SKETCHINC
 40
1.0
  9
$FILLETRAD
 40
10.0
  9
$AUNITS
 70
     0
  9
$AUPREC
 70
     2
  9
$MENU
  1
.
  9
$ELEVATION
 40
0.0
  9
$PELEVATION
 40
0.0
  9
$THICKNESS
 40
0.0
  9
$LIMCHECK
 70
     0
  9
$CHAMFERA
 40
0.0
  9
$CHAMFERB
 40
0.0
  9
$CHAMFERC
 40
0.0
  9
$CHAMFERD
 40
0.0
  9
$SKPOLY
 70
     0
  9
$TDCREATE
 40
2457676.476809768
  9
$TDUCREATE
 40
2457676.393476435
  9
$TDUPDATE
 40
2457676.476810312
  9
$TDUUPDATE
 40
2457676.393476979
  9
$TDINDWG
 40
0.0000000116
  9
$TDUSRTIMER
 40
0.0000000116
  9
$USRTIMER
 70
     1
  9
$ANGBASE
 50
0.0
  9
$ANGDIR
 70
     0
  9
$PDMODE
 70
     0
  9
$PDSIZE
 40
-1.0
  9
$PLINEWID
 40
0.0
  9
$SPLFRAME
 70
     0
  9
$SPLINETYPE
 70
     6
  9
$SPLINESEGS
 70
     8
  9
$HANDSEED
  5
38C
  9
$SURFTAB1
 70
     6
  9
$SURFTAB2
 70
     6
  9
$SURFTYPE
 70
     6
  9
$SURFU
 70
     6
  9
$SURFV
 70
     6
  9
$UCSBASE
  2

  9
$UCSNAME
  2

  9
$UCSORG
 10
0.0
 20
0.0
 30
0.0
  9
$UCSXDIR
 10
1.0
 20
0.0
 30
0.0
  9
$UCSYDIR
 10
0.0
 20
1.0
 30
0.0
  9
$UCSORTHOREF
  2

  9
$UCSORTHOVIEW
 70
     0
  9
$UCSORGTOP
 10
0.0
 20
0.0
 30
0.0
  9
$UCSORGBOTTOM
 10
0.0
 20
0.0
 30
0.0
  9
$UCSORGLEFT
 10
0.0
 20
0.0
 30
0.0
  9
$UCSORGRIGHT
 10
0.0
 20
0.0
 30
0.0
  9
$UCSORGFRONT
 10
0.0
 20
0.0
 30
0.0
  9
$UCSORGBACK
 10
0.0
 20
0.0
 30
0.0
  9
$PUCSBASE
  2

  9
$PUCSNAME
  2

  9
$PUCSORG
 10
0.0
 20
0.0
 30
0.0
  9
$PUCSXDIR
 10
1.0
 20
0.0
 30
0.0
  9
$PUCSYDIR
 10
0.0
 20
1.0
 30
0.0
  9
$PUCSORTHOREF
  2

  9
$PUCSORTHOVIEW
 70
     0
  9
$PUCSORGTOP
 10
0.0
 20
0.0
 30
0.0
  9
$PUCSORGBOTTOM
 10
0.0
 20
0.0
 30
0.0
  9
$PUCSORGLEFT
 10
0.0
 20
0.0
 30
0.0
  9
$PUCSORGRIGHT
 10
0.0
 20
0.0
 30
0.0
  9
$PUCSORGFRONT
 10
0.0
 20
0.0
 30
0.0
  9
$PUCSORGBACK
 10
0.0
 20
0.0
 30
0.0
  9
$USERI1
 70
     0
  9
$USERI2
 70
     0
  9
$USERI3
 70
     0
  9
$USERI4
 70
     0
  9
$USERI5
 70
     0
  9
$USERR1
 40
0.0
  9
$USERR2
 40
0.0
  9
$USERR3
 40
0.0
  9
$USERR4
 40
0.0
  9
$USERR5
 40
0.0
  9
$WORLDVIEW
 70
     1
  9
$SHADEDGE
 70
     3
  9
$SHADEDIF
 70
    70
  9
$TILEMODE
 70
     1
  9
$MAXACTVP
 70
    64
  9
$PINSBASE
 10
0.0
 20
0.0
 30
0.0
  9
$PLIMCHECK
 70
     0
  9
$PEXTMIN
 10
1.0000000000E+20
 20
1.0000000000E+20
 30
1.0000000000E+20
  9
$PEXTMAX
 10
-1.0000000000E+20
 20
-1.0000000000E+20
 30
-1.0000000000E+20
  9
$PLIMMIN
 10
0.0
 20
0.0
  9
$PLIMMAX
 10
420.0
 20
297.0
  9
$UNITMODE
 70
     0
  9
$VISRETAIN
 70
     1
  9
$PLINEGEN
 70
     0
  9
$PSLTSCALE
 70
     1
  9
$TREEDEPTH
 70
  3020
  9
$CMLSTYLE
  2
Standard
  9
$CMLJUST
 70
     0
  9
$CMLSCALE
 40
20.0
  9
$PROXYGRAPHICS
 70
     1
  9
$MEASUREMENT
 70
     1
  9
$CELWEIGHT
370
    -1
  9
$ENDCAPS
280
     0
  9
$JOINSTYLE
280
     0
  9
$LWDISPLAY
290
     1
  9
$INSUNITS
 70
     4
  9
$HYPERLINKBASE
  1

  9
$STYLESHEET
  1

  9
$XEDIT
290
     1
  9
$CEPSNTYPE
380
     0
  9
$PSTYLEMODE
290
     1
  9
$FINGERPRINTGUID
  2
{EE867C01-C01B-4F83-B564-CB70930B85D2}
  9
$VERSIONGUID
  2
{FAEB1C32-E019-11D5-929B-00C0DF256EC4}
  9
$EXTNAMES
290
     1
  9
$PSVPSCALE
 40
0.0
  9
$OLESTARTUP
290
     0
  0
ENDSEC
  0
SECTION
  2
CLASSES
  0
CLASS
  1
ACDBDICTIONARYWDFLT
  2
AcDbDictionaryWithDefault
  3
ObjectDBX Classes
 90
        0
280
     0
281
     0
  0
CLASS
  1
VISUALSTYLE
  2
AcDbVisualStyle
  3
ObjectDBX Classes
 90
     4095
280
     0
281
     0
  0
CLASS
  1
MATERIAL
  2
AcDbMaterial
  3
ObjectDBX Classes
 90
     1153
280
     0
281
     0
  0
CLASS
  1
SCALE
  2
AcDbScale
  3
ObjectDBX Classes
 90
     1153
280
     0
281
     0
  0
CLASS
  1
TABLESTYLE
  2
AcDbTableStyle
  3
ObjectDBX Classes
 90
     4095
280
     0
281
     0
  0
CLASS
  1
MLEADERSTYLE
  2
AcDbMLeaderStyle
  3
ACDB_MLEADERSTYLE_CLASS
 90
     4095
280
     0
281
     0
  0
CLASS
  1
SUN
  2
AcDbSun
  3
SCENEOE
 90
     1153
280
     0
281
     0
  0
CLASS
  1
ACDBPLACEHOLDER
  2
AcDbPlaceHolder
  3
ObjectDBX Classes
 90
        0
280
     0
281
     0
  0
CLASS
  1
LAYOUT
  2
AcDbLayout
  3
ObjectDBX Classes
 90
        0
280
     0
281
     0
  0
ENDSEC
  0
SECTION
  2
TABLES
  0
TABLE
  2
VPORT
  5
8
330
0
100
AcDbSymbolTable
 70
     1
  0
VPORT
  5
29
330
8
100
AcDbSymbolTableRecord
100
AcDbViewportTableRecord
  2
*Active
 70
     0
 10
0.0
 20
0.0
 11
1.0
 21
1.0
 12
215.9
 22
139.7
 13
0.0
 23
0.0
 14
10.0
 24
10.0
 15
10.0
 25
10.0
 16
0.0
 26
0.0
 36
1.0
 17
0.0
 27
0.0
 37
0.0
 40
279.4
 41
1.5454545455
 42
50.0
 43
0.0
 44
0.0
 50
0.0
 51
0.0
 71
     0
 72
  2000
 73
     1
 74
     3
 75
     0
 76
     0
 77
     0
 78
     0
281
     0
 65
     1
110
0.0
120
0.0
130
0.0
111
1.0
121
0.0
131
0.0
112
0.0
122
1.0
132
0.0
 79
     0
146
0.0
  0
ENDTAB
  0
TABLE
  2
LTYPE
  5
5
330
0
100
AcDbSymbolTable
 70
     6
  0
LTYPE
  5
14
330
5
100
AcDbSymbolTableRecord
100
AcDbLinetypeTableRecord
  2
ByBlock
 70
     0
  3

 72
    65
 73
     0
 40
0.0
  0
LTYPE
  5
15
330
5
100
AcDbSymbolTableRecord
100
AcDbLinetypeTableRecord
  2
ByLayer
 70
     0
  3

 72
    65
 73
     0
 40
0.0
  0
LTYPE
  5
16
330
5
100
AcDbSymbolTableRecord
100
AcDbLinetypeTableRecord
  2
Continuous
 70
     0
  3
Solid line
 72
    65
 73
     0
 40
0.0
  0
LTYPE
  5
6E
330
5
100
AcDbSymbolTableRecord
100
AcDbLinetypeTableRecord
  2
HIDDEN
 70
     0
  3
Hidden __ __ __ __ __ __ __ __ __ __ __ __ __ __
 72
    65
 73
     2
 40
1.905
 49
1.27
 74
     0
 49
-0.635
 74
     0
  0
LTYPE
  5
6F
330
5
100
AcDbSymbolTableRecord
100
AcDbLinetypeTableRecord
  2
PHANTOM
 70
     0
  3
Phantom ______  __  __  ______  __  __  ______
 72
    65
 73
     6
 40
12.7
 49
6.35
 74
     0
 49
-1.27
 74
     0
 49
1.27
 74
     0
 49
-1.27
 74
     0
 49
1.27
 74
     0
 49
-1.27
 74
     0
  0
LTYPE
  5
70
330
5
100
AcDbSymbolTableRecord
100
AcDbLinetypeTableRecord
  2
CENTER
 70
     0
  3
Center ____ _ ____ _ ____ _ ____ _ ____ _ ____
 72
    65
 73
     4
 40
10.16
 49
6.35
 74
     0
 49
-1.27
 74
     0
 49
1.27
 74
     0
 49
-1.27
 74
     0
  0
LTYPE
  5
71
330
5
100
AcDbSymbolTableRecord
100
AcDbLinetypeTableRecord
  2
CENTERX2
 70
     0
  3
Center (2x) ________  __  ________  __  _____
 72
    65
 73
     4
 40
20.32
 49
12.7
 74
     0
 49
-2.54
 74
     0
 49
2.54
 74
     0
 49
-2.54
 74
     0
  0
LTYPE
  5
72
330
5
100
AcDbSymbolTableRecord
100
AcDbLinetypeTableRecord
  2
DOT2
 70
     0
  3
Dot (.5x) ........................................
 72
    65
 73
     2
 40
0.635
 49
0.0
 74
     0
 49
-0.635
 74
     0
  0
ENDTAB
  0
TABLE
  2
LAYER
  5
2
330
0
100
AcDbSymbolTable
 70
     3
  0
LAYER
  5
10
330
2
100
AcDbSymbolTableRecord
100
AcDbLayerTableRecord
  2
0
 70
     0
 62
     7
  6
Continuous
370
    -3
390
F
  0
LAYER
  5
73
330
2
100
AcDbSymbolTableRecord
100
AcDbLayerTableRecord
  2
SLD-0
 70
     0
 62
   179
  6
Continuous
370
    -3
390
F
  0
LAYER
  5
74
330
2
100
AcDbSymbolTableRecord
100
AcDbLayerTableRecord
  2
EBENE_1
 70
     0
 62
   179
  6
Continuous
370
    -3
390
F
  0
ENDTAB
  0
TABLE
  2
STYLE
  5
3
330
0
100
AcDbSymbolTable
 70
     3
  0
STYLE
  5
11
330
3
100
AcDbSymbolTableRecord
100
AcDbTextStyleTableRecord
  2
Standard
 70
     0
 40
0.0
 41
1.0
 50
0.0
 71
     0
 42
4.9388888889
  3
txt
  4

  0
STYLE
  5
96
330
3
100
AcDbSymbolTableRecord
100
AcDbTextStyleTableRecord
  2
SLDTEXTSTYLE0
 70
     0
 40
0.0
 41
0.605
 50
0.0
 71
     0
 42
4.9388888889
  3
TXT
  4

  0
STYLE
  5
16E
330
3
100
AcDbSymbolTableRecord
100
AcDbTextStyleTableRecord
  2
SLDTEXTSTYLE1
 70
     0
 40
0.0
 41
0.75
 50
0.0
 71
     0
 42
4.9388888889
  3
TXT
  4

  0
ENDTAB
  0
TABLE
  2
VIEW
  5
6
330
0
100
AcDbSymbolTable
 70
     0
  0
ENDTAB
  0
TABLE
  2
UCS
  5
7
330
0
100
AcDbSymbolTable
 70
     0
  0
ENDTAB
  0
TABLE
  2
APPID
  5
9
330
0
100
AcDbSymbolTable
 70
     1
  0
APPID
  5
12
330
9
100
AcDbSymbolTableRecord
100
AcDbRegAppTableRecord
  2
ACAD
 70
     0
  0
ENDTAB
  0
TABLE
  2
DIMSTYLE
  5
A
330
0
100
AcDbSymbolTable
 70
     1
100
AcDbDimStyleTable
  0
DIMSTYLE
105
27
330
A
100
AcDbSymbolTableRecord
100
AcDbDimStyleTableRecord
  2
ISO-25
 70
     0
 41
2.5
 42
0.625
 43
3.75
 44
1.25
 73
     0
 74
     0
 77
     1
 78
     8
140
2.5
141
2.5
143
0.0393700787
147
0.625
171
     3
172
     1
178
     0
271
     2
272
     2
274
     3
278
    44
283
     0
284
     8
340
11
  0
ENDTAB
  0
TABLE
  2
BLOCK_RECORD
  5
1
330
0
100
AcDbSymbolTable
 70
    25
  0
BLOCK_RECORD
  5
1F
330
1
100
AcDbSymbolTableRecord
100
AcDbBlockTableRecord
  2
*Model_Space
340
22
  0
BLOCK_RECORD
  5
1B
330
1
100
AcDbSymbolTableRecord
100
AcDbBlockTableRecord
  2
*Paper_Space
340
1E
  0
BLOCK_RECORD
  5
23
330
1
100
AcDbSymbolTableRecord
100
AcDbBlockTableRecord
  2
*Paper_Space0
340
26
  0
BLOCK_RECORD
  5
75
330
1
100
AcDbSymbolTableRecord
100
AcDbBlockTableRecord
  2
Block1
340
0
102
{BLKREFS
331
16D
102
}
  0
BLOCK_RECORD
  5
8C
330
1
100
AcDbSymbolTableRecord
100
AcDbBlockTableRecord
  2
SW_BLOCK_DIMENSION_0
340
0
102
{BLKREFS
331
98
102
}
  0
BLOCK_RECORD
  5
8F
330
1
100
AcDbSymbolTableRecord
100
AcDbBlockTableRecord
  2
_ORIGIN
340
0
102
{BLKREFS
331
94
331
104
102
}
  0
BLOCK_RECORD
  5
99
330
1
100
AcDbSymbolTableRecord
100
AcDbBlockTableRecord
  2
SW_BLOCK_DIMENSION_1
340
0
102
{BLKREFS
331
A0
102
}
  0
BLOCK_RECORD
  5
A1
330
1
100
AcDbSymbolTableRecord
100
AcDbBlockTableRecord
  2
SW_BLOCK_DIMENSION_2
340
0
102
{BLKREFS
331
A8
102
}
  0
BLOCK_RECORD
  5
A9
330
1
100
AcDbSymbolTableRecord
100
AcDbBlockTableRecord
  2
SW_BLOCK_DIMENSION_3
340
0
102
{BLKREFS
331
B0
102
}
  0
BLOCK_RECORD
  5
B1
330
1
100
AcDbSymbolTableRecord
100
AcDbBlockTableRecord
  2
SW_BLOCK_DIMENSION_4
340
0
102
{BLKREFS
331
B8
102
}
  0
BLOCK_RECORD
  5
B9
330
1
100
AcDbSymbolTableRecord
100
AcDbBlockTableRecord
  2
SW_BLOCK_DIMENSION_5
340
0
102
{BLKREFS
331
C0
102
}
  0
BLOCK_RECORD
  5
C1
330
1
100
AcDbSymbolTableRecord
100
AcDbBlockTableRecord
  2
SW_BLOCK_DIMENSION_6
340
0
102
{BLKREFS
331
C8
102
}
  0
BLOCK_RECORD
  5
C9
330
1
100
AcDbSymbolTableRecord
100
AcDbBlockTableRecord
  2
SW_BLOCK_DIMENSION_7
340
0
102
{BLKREFS
331
D0
102
}
  0
BLOCK_RECORD
  5
D1
330
1
100
AcDbSymbolTableRecord
100
AcDbBlockTableRecord
  2
SW_BLOCK_DIMENSION_8
340
0
102
{BLKREFS
331
D8
102
}
  0
BLOCK_RECORD
  5
D9
330
1
100
AcDbSymbolTableRecord
100
AcDbBlockTableRecord
  2
SW_BLOCK_DIMENSION_9
340
0
102
{BLKREFS
331
E0
102
}
  0
BLOCK_RECORD
  5
E1
330
1
100
AcDbSymbolTableRecord
100
AcDbBlockTableRecord
  2
SW_BLOCK_DIMENSION_10
340
0
102
{BLKREFS
331
E8
102
}
  0
BLOCK_RECORD
  5
E9
330
1
100
AcDbSymbolTableRecord
100
AcDbBlockTableRecord
  2
SW_BLOCK_DIMENSION_11
340
0
102
{BLKREFS
331
F0
102
}
  0
BLOCK_RECORD
  5
F1
330
1
100
AcDbSymbolTableRecord
100
AcDbBlockTableRecord
  2
SW_BLOCK_DIMENSION_12
340
0
102
{BLKREFS
331
F8
102
}
  0
BLOCK_RECORD
  5
F9
330
1
100
AcDbSymbolTableRecord
100
AcDbBlockTableRecord
  2
SW_BLOCK_DIMENSION_13
340
0
102
{BLKREFS
331
100
102
}
  0
BLOCK_RECORD
  5
101
330
1
100
AcDbSymbolTableRecord
100
AcDbBlockTableRecord
  2
SW_BLOCK_DIMENSION_14
340
0
102
{BLKREFS
331
110
102
}
  0
BLOCK_RECORD
  5
111
330
1
100
AcDbSymbolTableRecord
100
AcDbBlockTableRecord
  2
SW_BLOCK_DIMENSION_15
340
0
102
{BLKREFS
331
121
102
}
  0
BLOCK_RECORD
  5
122
330
1
100
AcDbSymbolTableRecord
100
AcDbBlockTableRecord
  2
SW_BLOCK_DIMENSION_16
340
0
102
{BLKREFS
331
132
102
}
  0
BLOCK_RECORD
  5
133
330
1
100
AcDbSymbolTableRecord
100
AcDbBlockTableRecord
  2
SW_BLOCK_DIMENSION_17
340
0
102
{BLKREFS
331
143
102
}
  0
BLOCK_RECORD
  5
144
330
1
100
AcDbSymbolTableRecord
100
AcDbBlockTableRecord
  2
SW_BLOCK_DIMENSION_18
340
0
102
{BLKREFS
331
154
102
}
  0
BLOCK_RECORD
  5
155
330
1
100
AcDbSymbolTableRecord
100
AcDbBlockTableRecord
  2
SW_BLOCK_DIMENSION_19
340
0
102
{BLKREFS
331
165
102
}
  0
BLOCK_RECORD
  5
166
330
1
100
AcDbSymbolTableRecord
100
AcDbBlockTableRecord
  2
SW_NOTE_0
340
0
102
{BLKREFS
331
16B
102
}
  0
BLOCK_RECORD
  5
171
330
1
100
AcDbSymbolTableRecord
100
AcDbBlockTableRecord
  2
SW_NOTE_1
340
0
102
{BLKREFS
331
178
102
}
  0
ENDTAB
  0
ENDSEC
  0
SECTION
  2
BLOCKS
  0
BLOCK
  5
20
330
1F
100
AcDbEntity
  8
0
100
AcDbBlockBegin
  2
*Model_Space
 70
     0
 10
0.0
 20
0.0
 30
0.0
  3
*Model_Space
  1

  0
ENDBLK
  5
21
330
1F
100
AcDbEntity
  8
0
100
AcDbBlockEnd
  0
BLOCK
  5
1C
330
1B
100
AcDbEntity
 67
     1
  8
0
100
AcDbBlockBegin
  2
*Paper_Space
 70
     0
 10
0.0
 20
0.0
 30
0.0
  3
*Paper_Space
  1

  0
ENDBLK
  5
1D
330
1B
100
AcDbEntity
 67
     1
  8
0
100
AcDbBlockEnd
  0
BLOCK
  5
24
330
23
100
AcDbEntity
  8
0
100
AcDbBlockBegin
  2
*Paper_Space0
 70
     0
 10
0.0
 20
0.0
 30
0.0
  3
*Paper_Space0
  1

  0
ENDBLK
  5
25
330
23
100
AcDbEntity
  8
0
100
AcDbBlockEnd
  0
BLOCK
  5
76
330
75
100
AcDbEntity
  8
0
100
AcDbBlockBegin
  2
Block1
 70
     0
 10
0.0
 20
0.0
 30
0.0
  3
Block1
  1

  0
LINE
  5
78
330
75
100
AcDbEntity
  8
EBENE_1
100
AcDbLine
 10
363.6834285714
 20
41.3579706949
 30
0.0
 11
388.6834285714
 21
41.3579706949
 31
0.0
  0
LINE
  5
79
330
75
100
AcDbEntity
  8
EBENE_1
100
AcDbLine
 10
374.9034285714
 20
41.3579706949
 30
0.0
 11
374.9034285714
 21
171.3579706949
 31
0.0
  0
LINE
  5
7A
330
75
100
AcDbEntity
  8
EBENE_1
100
AcDbLine
 10
374.9034285714
 20
51.3579706949
 30
0.0
 11
384.9034285714
 21
51.3579706949
 31
0.0
  0
LINE
  5
7B
330
75
100
AcDbEntity
  8
EBENE_1
100
AcDbLine
 10
374.9034285714
 20
61.3579706949
 30
0.0
 11
384.9034285714
 21
61.3579706949
 31
0.0
  0
LINE
  5
7C
330
75
100
AcDbEntity
  8
EBENE_1
100
AcDbLine
 10
374.9034285714
 20
71.3579706949
 30
0.0
 11
384.9034285714
 21
71.3579706949
 31
0.0
  0
LINE
  5
7D
330
75
100
AcDbEntity
  8
EBENE_1
100
AcDbLine
 10
374.9034285714
 20
81.3579706949
 30
0.0
 11
384.9034285714
 21
81.3579706949
 31
0.0
  0
LINE
  5
7E
330
75
100
AcDbEntity
  8
EBENE_1
100
AcDbLine
 10
374.9034285714
 20
91.3579706949
 30
0.0
 11
384.9034285714
 21
91.3579706949
 31
0.0
  0
LINE
  5
7F
330
75
100
AcDbEntity
  8
EBENE_1
100
AcDbLine
 10
374.9034285714
 20
101.3579706949
 30
0.0
 11
384.9034285714
 21
101.3579706949
 31
0.0
  0
LINE
  5
80
330
75
100
AcDbEntity
  8
EBENE_1
100
AcDbLine
 10
374.9034285714
 20
111.3579706949
 30
0.0
 11
384.9034285714
 21
111.3579706949
 31
0.0
  0
LINE
  5
81
330
75
100
AcDbEntity
  8
EBENE_1
100
AcDbLine
 10
374.9034285714
 20
121.3579706949
 30
0.0
 11
384.9034285714
 21
121.3579706949
 31
0.0
  0
LINE
  5
82
330
75
100
AcDbEntity
  8
EBENE_1
100
AcDbLine
 10
374.9034285714
 20
131.3579706949
 30
0.0
 11
384.9034285714
 21
131.3579706949
 31
0.0
  0
LINE
  5
83
330
75
100
AcDbEntity
  8
EBENE_1
100
AcDbLine
 10
374.9034285714
 20
141.3579706949
 30
0.0
 11
384.9034285714
 21
141.3579706949
 31
0.0
  0
LINE
  5
84
330
75
100
AcDbEntity
  8
EBENE_1
100
AcDbLine
 10
374.9034285714
 20
151.3579706949
 30
0.0
 11
384.9034285714
 21
151.3579706949
 31
0.0
  0
LINE
  5
85
330
75
100
AcDbEntity
  8
EBENE_1
100
AcDbLine
 10
374.9034285714
 20
161.3579706949
 30
0.0
 11
384.9034285714
 21
161.3579706949
 31
0.0
  0
LINE
  5
86
330
75
100
AcDbEntity
  8
EBENE_1
100
AcDbLine
 10
374.9034285714
 20
171.3579706949
 30
0.0
 11
384.9034285714
 21
171.3579706949
 31
0.0
  0
LINE
  5
87
330
75
100
AcDbEntity
  8
EBENE_1
100
AcDbLine
 10
374.9034285714
 20
66.7579706949
 30
0.0
 11
362.9034285714
 21
66.7579706949
 31
0.0
  0
LINE
  5
88
330
75
100
AcDbEntity
  8
EBENE_1
100
AcDbLine
 10
374.9034285714
 20
92.1579706949
 30
0.0
 11
362.9034285714
 21
92.1579706949
 31
0.0
  0
LINE
  5
89
330
75
100
AcDbEntity
  8
EBENE_1
100
AcDbLine
 10
374.9034285714
 20
117.5579706949
 30
0.0
 11
362.9034285714
 21
117.5579706949
 31
0.0
  0
LINE
  5
8A
330
75
100
AcDbEntity
  8
EBENE_1
100
AcDbLine
 10
374.9034285714
 20
142.9579706949
 30
0.0
 11
362.9034285714
 21
142.9579706949
 31
0.0
  0
LINE
  5
8B
330
75
100
AcDbEntity
  8
EBENE_1
100
AcDbLine
 10
374.9034285714
 20
168.3579706949
 30
0.0
 11
362.9034285714
 21
168.3579706949
 31
0.0
  0
INSERT
  5
98
330
75
100
AcDbEntity
  8
EBENE_1
100
AcDbBlockReference
  2
SW_BLOCK_DIMENSION_0
 10
397.2096946378
 20
38.9914197296
 30
0.0
  0
INSERT
  5
A0
330
75
100
AcDbEntity
  8
EBENE_1
100
AcDbBlockReference
  2
SW_BLOCK_DIMENSION_1
 10
397.2096946378
 20
48.9914197296
 30
0.0
  0
INSERT
  5
A8
330
75
100
AcDbEntity
  8
EBENE_1
100
AcDbBlockReference
  2
SW_BLOCK_DIMENSION_2
 10
397.2096946378
 20
58.9914197296
 30
0.0
  0
INSERT
  5
B0
330
75
100
AcDbEntity
  8
EBENE_1
100
AcDbBlockReference
  2
SW_BLOCK_DIMENSION_3
 10
397.2096946378
 20
68.9914197296
 30
0.0
  0
INSERT
  5
B8
330
75
100
AcDbEntity
  8
EBENE_1
100
AcDbBlockReference
  2
SW_BLOCK_DIMENSION_4
 10
397.2096946378
 20
78.9914197296
 30
0.0
  0
INSERT
  5
C0
330
75
100
AcDbEntity
  8
EBENE_1
100
AcDbBlockReference
  2
SW_BLOCK_DIMENSION_5
 10
397.2096946378
 20
88.9914197296
 30
0.0
  0
INSERT
  5
C8
330
75
100
AcDbEntity
  8
EBENE_1
100
AcDbBlockReference
  2
SW_BLOCK_DIMENSION_6
 10
397.2096946378
 20
98.9914197296
 30
0.0
  0
INSERT
  5
D0
330
75
100
AcDbEntity
  8
EBENE_1
100
AcDbBlockReference
  2
SW_BLOCK_DIMENSION_7
 10
397.2096946378
 20
108.9914197296
 30
0.0
  0
INSERT
  5
D8
330
75
100
AcDbEntity
  8
EBENE_1
100
AcDbBlockReference
  2
SW_BLOCK_DIMENSION_8
 10
397.2096946378
 20
118.9914197296
 30
0.0
  0
INSERT
  5
E0
330
75
100
AcDbEntity
  8
EBENE_1
100
AcDbBlockReference
  2
SW_BLOCK_DIMENSION_9
 10
397.2096946378
 20
128.9914197296
 30
0.0
  0
INSERT
  5
E8
330
75
100
AcDbEntity
  8
EBENE_1
100
AcDbBlockReference
  2
SW_BLOCK_DIMENSION_10
 10
397.2096946378
 20
138.9914197296
 30
0.0
  0
INSERT
  5
F0
330
75
100
AcDbEntity
  8
EBENE_1
100
AcDbBlockReference
  2
SW_BLOCK_DIMENSION_11
 10
397.2096946378
 20
148.9914197296
 30
0.0
  0
INSERT
  5
F8
330
75
100
AcDbEntity
  8
EBENE_1
100
AcDbBlockReference
  2
SW_BLOCK_DIMENSION_12
 10
397.2096946378
 20
158.9914197296
 30
0.0
  0
INSERT
  5
100
330
75
100
AcDbEntity
  8
EBENE_1
100
AcDbBlockReference
  2
SW_BLOCK_DIMENSION_13
 10
397.2096946378
 20
168.9914197296
 30
0.0
  0
INSERT
  5
110
330
75
100
AcDbEntity
  8
EBENE_1
100
AcDbBlockReference
  2
SW_BLOCK_DIMENSION_14
 10
337.2987953614
 20
36.1691980072
 30
0.0
  0
INSERT
  5
121
330
75
100
AcDbEntity
  8
EBENE_1
100
AcDbBlockReference
  2
SW_BLOCK_DIMENSION_15
 10
337.2987953614
 20
61.5691980072
 30
0.0
  0
INSERT
  5
132
330
75
100
AcDbEntity
  8
EBENE_1
100
AcDbBlockReference
  2
SW_BLOCK_DIMENSION_16
 10
337.2987953614
 20
86.9691980072
 30
0.0
  0
INSERT
  5
143
330
75
100
AcDbEntity
  8
EBENE_1
100
AcDbBlockReference
  2
SW_BLOCK_DIMENSION_17
 10
337.2987953614
 20
112.3691980072
 30
0.0
  0
INSERT
  5
154
330
75
100
AcDbEntity
  8
EBENE_1
100
AcDbBlockReference
  2
SW_BLOCK_DIMENSION_18
 10
336.8284243759
 20
137.7691980072
 30
0.0
  0
INSERT
  5
165
330
75
100
AcDbEntity
  8
EBENE_1
100
AcDbBlockReference
  2
SW_BLOCK_DIMENSION_19
 10
337.2987953614
 20
163.1691980072
 30
0.0
  0
INSERT
  5
16B
330
75
100
AcDbEntity
  8
EBENE_1
 62
   179
100
AcDbBlockReference
  2
SW_NOTE_0
 10
337.5586028241
 20
28.8175207347
 30
0.0
  0
MTEXT
  5
16C
330
75
100
AcDbEntity
  8
EBENE_1
100
AcDbMText
 10
393.160738319
 20
33.5924424874
 30
0.0
 40
3.7041666667
 41
0.0
 71
     1
 72
     1
  1
mm
  7
SLDTEXTSTYLE0
 73
     1
 44
1.0
  0
ENDBLK
  5
77
330
75
100
AcDbEntity
  8
0
100
AcDbBlockEnd
  0
BLOCK
  5
8D
330
8C
100
AcDbEntity
  8
0
100
AcDbBlockBegin
  2
SW_BLOCK_DIMENSION_0
 70
     0
 10
0.0
 20
0.0
 30
0.0
  3
SW_BLOCK_DIMENSION_0
  1

  0
INSERT
  5
94
330
8C
100
AcDbEntity
  8
EBENE_1
 62
     0
100
AcDbBlockReference
  2
_ORIGIN
 10
-1.5805038061
 20
2.3665509652
 30
0.0
 41
0.9483022837
 42
0.9483022837
 50
0.0
  0
LINE
  5
95
330
8C
100
AcDbEntity
  8
EBENE_1
 62
     0
100
AcDbLine
 10
-6.5262660664
 20
2.3665509652
 30
0.0
 11
0.0
 21
2.3665509652
 31
0.0
  0
MTEXT
  5
97
330
8C
100
AcDbEntity
  8
EBENE_1
 62
     0
100
AcDbMText
 10
0.0
 20
4.0927900738
 30
0.0
 40
3.175
 41
0.0
 71
     1
 72
     1
  1
0
  7
SLDTEXTSTYLE0
 73
     1
 44
1.0
  0
ENDBLK
  5
8E
330
8C
100
AcDbEntity
  8
0
100
AcDbBlockEnd
  0
BLOCK
  5
90
330
8F
100
AcDbEntity
  8
0
100
AcDbBlockBegin
  2
_ORIGIN
 70
     0
 10
0.0
 20
0.0
 30
0.0
  3
_ORIGIN
  1

  0
CIRCLE
  5
92
330
8F
100
AcDbEntity
  8
0
  6
ByBlock
 62
     0
370
    -2
100
AcDbCircle
 10
0.0
 20
0.0
 30
0.0
 40
0.5
  0
LINE
  5
93
330
8F
100
AcDbEntity
  8
0
  6
ByBlock
 62
     0
370
    -2
100
AcDbLine
 10
0.0
 20
0.0
 30
0.0
 11
-1.0
 21
0.0
 31
0.0
  0
ENDBLK
  5
91
330
8F
100
AcDbEntity
  8
0
100
AcDbBlockEnd
  0
BLOCK
  5
9A
330
99
100
AcDbEntity
  8
0
100
AcDbBlockBegin
  2
SW_BLOCK_DIMENSION_1
 70
     0
 10
0.0
 20
0.0
 30
0.0
  3
SW_BLOCK_DIMENSION_1
  1

  0
SOLID
  5
9C
330
99
100
AcDbEntity
  8
EBENE_1
 62
     0
100
AcDbTrace
 10
-1.5805038061
 20
2.3665509652
 30
0.0
 11
-2.0546549479
 21
-0.7154314566
 31
0.0
 12
-1.1063526643
 22
-0.7154314566
 32
0.0
 13
-1.1063526643
 23
-0.7154314566
 33
0.0
  0
LINE
  5
9D
330
99
100
AcDbEntity
  8
EBENE_1
 62
     0
100
AcDbLine
 10
-10.3062660664
 20
2.3665509652
 30
0.0
 11
0.0
 21
2.3665509652
 31
0.0
  0
LINE
  5
9E
330
99
100
AcDbEntity
  8
EBENE_1
 62
     0
100
AcDbLine
 10
-1.5805038061
 20
-7.6334490348
 30
0.0
 11
-1.5805038061
 21
2.3665509652
 31
0.0
  0
MTEXT
  5
9F
330
99
100
AcDbEntity
  8
EBENE_1
 62
     0
100
AcDbMText
 10
0.0
 20
4.0927900738
 30
0.0
 40
3.175
 41
0.0
 71
     1
 72
     1
  1
10
  7
SLDTEXTSTYLE0
 73
     1
 44
1.0
  0
ENDBLK
  5
9B
330
99
100
AcDbEntity
  8
0
100
AcDbBlockEnd
  0
BLOCK
  5
A2
330
A1
100
AcDbEntity
  8
0
100
AcDbBlockBegin
  2
SW_BLOCK_DIMENSION_2
 70
     0
 10
0.0
 20
0.0
 30
0.0
  3
SW_BLOCK_DIMENSION_2
  1

  0
SOLID
  5
A4
330
A1
100
AcDbEntity
  8
EBENE_1
 62
     0
100
AcDbTrace
 10
-1.5805038061
 20
2.3665509652
 30
0.0
 11
-2.0546549479
 21
-0.7154314566
 31
0.0
 12
-1.1063526643
 22
-0.7154314566
 32
0.0
 13
-1.1063526643
 23
-0.7154314566
 33
0.0
  0
LINE
  5
A5
330
A1
100
AcDbEntity
  8
EBENE_1
 62
     0
100
AcDbLine
 10
-10.3062660664
 20
2.3665509652
 30
0.0
 11
0.0
 21
2.3665509652
 31
0.0
  0
LINE
  5
A6
330
A1
100
AcDbEntity
  8
EBENE_1
 62
     0
100
AcDbLine
 10
-1.5805038061
 20
-7.6334490348
 30
0.0
 11
-1.5805038061
 21
2.3665509652
 31
0.0
  0
MTEXT
  5
A7
330
A1
100
AcDbEntity
  8
EBENE_1
 62
     0
100
AcDbMText
 10
0.0
 20
4.0927900738
 30
0.0
 40
3.175
 41
0.0
 71
     1
 72
     1
  1
20
  7
SLDTEXTSTYLE0
 73
     1
 44
1.0
  0
ENDBLK
  5
A3
330
A1
100
AcDbEntity
  8
0
100
AcDbBlockEnd
  0
BLOCK
  5
AA
330
A9
100
AcDbEntity
  8
0
100
AcDbBlockBegin
  2
SW_BLOCK_DIMENSION_3
 70
     0
 10
0.0
 20
0.0
 30
0.0
  3
SW_BLOCK_DIMENSION_3
  1

  0
SOLID
  5
AC
330
A9
100
AcDbEntity
  8
EBENE_1
 62
     0
100
AcDbTrace
 10
-1.5805038061
 20
2.3665509652
 30
0.0
 11
-2.0546549479
 21
-0.7154314566
 31
0.0
 12
-1.1063526643
 22
-0.7154314566
 32
0.0
 13
-1.1063526643
 23
-0.7154314566
 33
0.0
  0
LINE
  5
AD
330
A9
100
AcDbEntity
  8
EBENE_1
 62
     0
100
AcDbLine
 10
-10.3062660664
 20
2.3665509652
 30
0.0
 11
0.0
 21
2.3665509652
 31
0.0
  0
LINE
  5
AE
330
A9
100
AcDbEntity
  8
EBENE_1
 62
     0
100
AcDbLine
 10
-1.5805038061
 20
-7.6334490348
 30
0.0
 11
-1.5805038061
 21
2.3665509652
 31
0.0
  0
MTEXT
  5
AF
330
A9
100
AcDbEntity
  8
EBENE_1
 62
     0
100
AcDbMText
 10
0.0
 20
4.0927900738
 30
0.0
 40
3.175
 41
0.0
 71
     1
 72
     1
  1
30
  7
SLDTEXTSTYLE0
 73
     1
 44
1.0
  0
ENDBLK
  5
AB
330
A9
100
AcDbEntity
  8
0
100
AcDbBlockEnd
  0
BLOCK
  5
B2
330
B1
100
AcDbEntity
  8
0
100
AcDbBlockBegin
  2
SW_BLOCK_DIMENSION_4
 70
     0
 10
0.0
 20
0.0
 30
0.0
  3
SW_BLOCK_DIMENSION_4
  1

  0
SOLID
  5
B4
330
B1
100
AcDbEntity
  8
EBENE_1
 62
     0
100
AcDbTrace
 10
-1.5805038061
 20
2.3665509652
 30
0.0
 11
-2.0546549479
 21
-0.7154314566
 31
0.0
 12
-1.1063526643
 22
-0.7154314566
 32
0.0
 13
-1.1063526643
 23
-0.7154314566
 33
0.0
  0
LINE
  5
B5
330
B1
100
AcDbEntity
  8
EBENE_1
 62
     0
100
AcDbLine
 10
-10.3062660664
 20
2.3665509652
 30
0.0
 11
0.0
 21
2.3665509652
 31
0.0
  0
LINE
  5
B6
330
B1
100
AcDbEntity
  8
EBENE_1
 62
     0
100
AcDbLine
 10
-1.5805038061
 20
-7.6334490348
 30
0.0
 11
-1.5805038061
 21
2.3665509652
 31
0.0
  0
MTEXT
  5
B7
330
B1
100
AcDbEntity
  8
EBENE_1
 62
     0
100
AcDbMText
 10
0.0
 20
4.0927900738
 30
0.0
 40
3.175
 41
0.0
 71
     1
 72
     1
  1
40
  7
SLDTEXTSTYLE0
 73
     1
 44
1.0
  0
ENDBLK
  5
B3
330
B1
100
AcDbEntity
  8
0
100
AcDbBlockEnd
  0
BLOCK
  5
BA
330
B9
100
AcDbEntity
  8
0
100
AcDbBlockBegin
  2
SW_BLOCK_DIMENSION_5
 70
     0
 10
0.0
 20
0.0
 30
0.0
  3
SW_BLOCK_DIMENSION_5
  1

  0
SOLID
  5
BC
330
B9
100
AcDbEntity
  8
EBENE_1
 62
     0
100
AcDbTrace
 10
-1.5805038061
 20
2.3665509652
 30
0.0
 11
-2.0546549479
 21
-0.7154314566
 31
0.0
 12
-1.1063526643
 22
-0.7154314566
 32
0.0
 13
-1.1063526643
 23
-0.7154314566
 33
0.0
  0
LINE
  5
BD
330
B9
100
AcDbEntity
  8
EBENE_1
 62
     0
100
AcDbLine
 10
-10.3062660664
 20
2.3665509652
 30
0.0
 11
0.0
 21
2.3665509652
 31
0.0
  0
LINE
  5
BE
330
B9
100
AcDbEntity
  8
EBENE_1
 62
     0
100
AcDbLine
 10
-1.5805038061
 20
-7.6334490348
 30
0.0
 11
-1.5805038061
 21
2.3665509652
 31
0.0
  0
MTEXT
  5
BF
330
B9
100
AcDbEntity
  8
EBENE_1
 62
     0
100
AcDbMText
 10
0.0
 20
4.0927900738
 30
0.0
 40
3.175
 41
0.0
 71
     1
 72
     1
  1
50
  7
SLDTEXTSTYLE0
 73
     1
 44
1.0
  0
ENDBLK
  5
BB
330
B9
100
AcDbEntity
  8
0
100
AcDbBlockEnd
  0
BLOCK
  5
C2
330
C1
100
AcDbEntity
  8
0
100
AcDbBlockBegin
  2
SW_BLOCK_DIMENSION_6
 70
     0
 10
0.0
 20
0.0
 30
0.0
  3
SW_BLOCK_DIMENSION_6
  1

  0
SOLID
  5
C4
330
C1
100
AcDbEntity
  8
EBENE_1
 62
     0
100
AcDbTrace
 10
-1.5805038061
 20
2.3665509652
 30
0.0
 11
-2.0546549479
 21
-0.7154314566
 31
0.0
 12
-1.1063526643
 22
-0.7154314566
 32
0.0
 13
-1.1063526643
 23
-0.7154314566
 33
0.0
  0
LINE
  5
C5
330
C1
100
AcDbEntity
  8
EBENE_1
 62
     0
100
AcDbLine
 10
-10.3062660664
 20
2.3665509652
 30
0.0
 11
0.0
 21
2.3665509652
 31
0.0
  0
LINE
  5
C6
330
C1
100
AcDbEntity
  8
EBENE_1
 62
     0
100
AcDbLine
 10
-1.5805038061
 20
-7.6334490348
 30
0.0
 11
-1.5805038061
 21
2.3665509652
 31
0.0
  0
MTEXT
  5
C7
330
C1
100
AcDbEntity
  8
EBENE_1
 62
     0
100
AcDbMText
 10
0.0
 20
4.0927900738
 30
0.0
 40
3.175
 41
0.0
 71
     1
 72
     1
  1
60
  7
SLDTEXTSTYLE0
 73
     1
 44
1.0
  0
ENDBLK
  5
C3
330
C1
100
AcDbEntity
  8
0
100
AcDbBlockEnd
  0
BLOCK
  5
CA
330
C9
100
AcDbEntity
  8
0
100
AcDbBlockBegin
  2
SW_BLOCK_DIMENSION_7
 70
     0
 10
0.0
 20
0.0
 30
0.0
  3
SW_BLOCK_DIMENSION_7
  1

  0
SOLID
  5
CC
330
C9
100
AcDbEntity
  8
EBENE_1
 62
     0
100
AcDbTrace
 10
-1.5805038061
 20
2.3665509652
 30
0.0
 11
-2.0546549479
 21
-0.7154314566
 31
0.0
 12
-1.1063526643
 22
-0.7154314566
 32
0.0
 13
-1.1063526643
 23
-0.7154314566
 33
0.0
  0
LINE
  5
CD
330
C9
100
AcDbEntity
  8
EBENE_1
 62
     0
100
AcDbLine
 10
-10.3062660664
 20
2.3665509652
 30
0.0
 11
0.0
 21
2.3665509652
 31
0.0
  0
LINE
  5
CE
330
C9
100
AcDbEntity
  8
EBENE_1
 62
     0
100
AcDbLine
 10
-1.5805038061
 20
-7.6334490348
 30
0.0
 11
-1.5805038061
 21
2.3665509652
 31
0.0
  0
MTEXT
  5
CF
330
C9
100
AcDbEntity
  8
EBENE_1
 62
     0
100
AcDbMText
 10
0.0
 20
4.0927900738
 30
0.0
 40
3.175
 41
0.0
 71
     1
 72
     1
  1
70
  7
SLDTEXTSTYLE0
 73
     1
 44
1.0
  0
ENDBLK
  5
CB
330
C9
100
AcDbEntity
  8
0
100
AcDbBlockEnd
  0
BLOCK
  5
D2
330
D1
100
AcDbEntity
  8
0
100
AcDbBlockBegin
  2
SW_BLOCK_DIMENSION_8
 70
     0
 10
0.0
 20
0.0
 30
0.0
  3
SW_BLOCK_DIMENSION_8
  1

  0
SOLID
  5
D4
330
D1
100
AcDbEntity
  8
EBENE_1
 62
     0
100
AcDbTrace
 10
-1.5805038061
 20
2.3665509652
 30
0.0
 11
-2.0546549479
 21
-0.7154314566
 31
0.0
 12
-1.1063526643
 22
-0.7154314566
 32
0.0
 13
-1.1063526643
 23
-0.7154314566
 33
0.0
  0
LINE
  5
D5
330
D1
100
AcDbEntity
  8
EBENE_1
 62
     0
100
AcDbLine
 10
-10.3062660664
 20
2.3665509652
 30
0.0
 11
0.0
 21
2.3665509652
 31
0.0
  0
LINE
  5
D6
330
D1
100
AcDbEntity
  8
EBENE_1
 62
     0
100
AcDbLine
 10
-1.5805038061
 20
-7.6334490348
 30
0.0
 11
-1.5805038061
 21
2.3665509652
 31
0.0
  0
MTEXT
  5
D7
330
D1
100
AcDbEntity
  8
EBENE_1
 62
     0
100
AcDbMText
 10
0.0
 20
4.0927900738
 30
0.0
 40
3.175
 41
0.0
 71
     1
 72
     1
  1
80
  7
SLDTEXTSTYLE0
 73
     1
 44
1.0
  0
ENDBLK
  5
D3
330
D1
100
AcDbEntity
  8
0
100
AcDbBlockEnd
  0
BLOCK
  5
DA
330
D9
100
AcDbEntity
  8
0
100
AcDbBlockBegin
  2
SW_BLOCK_DIMENSION_9
 70
     0
 10
0.0
 20
0.0
 30
0.0
  3
SW_BLOCK_DIMENSION_9
  1

  0
SOLID
  5
DC
330
D9
100
AcDbEntity
  8
EBENE_1
 62
     0
100
AcDbTrace
 10
-1.5805038061
 20
2.3665509652
 30
0.0
 11
-2.0546549479
 21
-0.7154314566
 31
0.0
 12
-1.1063526643
 22
-0.7154314566
 32
0.0
 13
-1.1063526643
 23
-0.7154314566
 33
0.0
  0
LINE
  5
DD
330
D9
100
AcDbEntity
  8
EBENE_1
 62
     0
100
AcDbLine
 10
-10.3062660664
 20
2.3665509652
 30
0.0
 11
0.0
 21
2.3665509652
 31
0.0
  0
LINE
  5
DE
330
D9
100
AcDbEntity
  8
EBENE_1
 62
     0
100
AcDbLine
 10
-1.5805038061
 20
-7.6334490348
 30
0.0
 11
-1.5805038061
 21
2.3665509652
 31
0.0
  0
MTEXT
  5
DF
330
D9
100
AcDbEntity
  8
EBENE_1
 62
     0
100
AcDbMText
 10
0.0
 20
4.0927900738
 30
0.0
 40
3.175
 41
0.0
 71
     1
 72
     1
  1
90
  7
SLDTEXTSTYLE0
 73
     1
 44
1.0
  0
ENDBLK
  5
DB
330
D9
100
AcDbEntity
  8
0
100
AcDbBlockEnd
  0
BLOCK
  5
E2
330
E1
100
AcDbEntity
  8
0
100
AcDbBlockBegin
  2
SW_BLOCK_DIMENSION_10
 70
     0
 10
0.0
 20
0.0
 30
0.0
  3
SW_BLOCK_DIMENSION_10
  1

  0
SOLID
  5
E4
330
E1
100
AcDbEntity
  8
EBENE_1
 62
     0
100
AcDbTrace
 10
-1.5805038061
 20
2.3665509652
 30
0.0
 11
-2.0546549479
 21
-0.7154314566
 31
0.0
 12
-1.1063526643
 22
-0.7154314566
 32
0.0
 13
-1.1063526643
 23
-0.7154314566
 33
0.0
  0
LINE
  5
E5
330
E1
100
AcDbEntity
  8
EBENE_1
 62
     0
100
AcDbLine
 10
-10.3062660664
 20
2.3665509652
 30
0.0
 11
0.0
 21
2.3665509652
 31
0.0
  0
LINE
  5
E6
330
E1
100
AcDbEntity
  8
EBENE_1
 62
     0
100
AcDbLine
 10
-1.5805038061
 20
-7.6334490348
 30
0.0
 11
-1.5805038061
 21
2.3665509652
 31
0.0
  0
MTEXT
  5
E7
330
E1
100
AcDbEntity
  8
EBENE_1
 62
     0
100
AcDbMText
 10
0.0
 20
4.0927900738
 30
0.0
 40
3.175
 41
0.0
 71
     1
 72
     1
  1
100
  7
SLDTEXTSTYLE0
 73
     1
 44
1.0
  0
ENDBLK
  5
E3
330
E1
100
AcDbEntity
  8
0
100
AcDbBlockEnd
  0
BLOCK
  5
EA
330
E9
100
AcDbEntity
  8
0
100
AcDbBlockBegin
  2
SW_BLOCK_DIMENSION_11
 70
     0
 10
0.0
 20
0.0
 30
0.0
  3
SW_BLOCK_DIMENSION_11
  1

  0
SOLID
  5
EC
330
E9
100
AcDbEntity
  8
EBENE_1
 62
     0
100
AcDbTrace
 10
-1.5805038061
 20
2.3665509652
 30
0.0
 11
-2.0546549479
 21
-0.7154314566
 31
0.0
 12
-1.1063526643
 22
-0.7154314566
 32
0.0
 13
-1.1063526643
 23
-0.7154314566
 33
0.0
  0
LINE
  5
ED
330
E9
100
AcDbEntity
  8
EBENE_1
 62
     0
100
AcDbLine
 10
-10.3062660664
 20
2.3665509652
 30
0.0
 11
0.0
 21
2.3665509652
 31
0.0
  0
LINE
  5
EE
330
E9
100
AcDbEntity
  8
EBENE_1
 62
     0
100
AcDbLine
 10
-1.5805038061
 20
-7.6334490348
 30
0.0
 11
-1.5805038061
 21
2.3665509652
 31
0.0
  0
MTEXT
  5
EF
330
E9
100
AcDbEntity
  8
EBENE_1
 62
     0
100
AcDbMText
 10
0.0
 20
4.0927900738
 30
0.0
 40
3.175
 41
0.0
 71
     1
 72
     1
  1
110
  7
SLDTEXTSTYLE0
 73
     1
 44
1.0
  0
ENDBLK
  5
EB
330
E9
100
AcDbEntity
  8
0
100
AcDbBlockEnd
  0
BLOCK
  5
F2
330
F1
100
AcDbEntity
  8
0
100
AcDbBlockBegin
  2
SW_BLOCK_DIMENSION_12
 70
     0
 10
0.0
 20
0.0
 30
0.0
  3
SW_BLOCK_DIMENSION_12
  1

  0
SOLID
  5
F4
330
F1
100
AcDbEntity
  8
EBENE_1
 62
     0
100
AcDbTrace
 10
-1.5805038061
 20
2.3665509652
 30
0.0
 11
-2.0546549479
 21
-0.7154314566
 31
0.0
 12
-1.1063526643
 22
-0.7154314566
 32
0.0
 13
-1.1063526643
 23
-0.7154314566
 33
0.0
  0
LINE
  5
F5
330
F1
100
AcDbEntity
  8
EBENE_1
 62
     0
100
AcDbLine
 10
-10.3062660664
 20
2.3665509652
 30
0.0
 11
0.0
 21
2.3665509652
 31
0.0
  0
LINE
  5
F6
330
F1
100
AcDbEntity
  8
EBENE_1
 62
     0
100
AcDbLine
 10
-1.5805038061
 20
-7.6334490348
 30
0.0
 11
-1.5805038061
 21
2.3665509652
 31
0.0
  0
MTEXT
  5
F7
330
F1
100
AcDbEntity
  8
EBENE_1
 62
     0
100
AcDbMText
 10
0.0
 20
4.0927900738
 30
0.0
 40
3.175
 41
0.0
 71
     1
 72
     1
  1
120
  7
SLDTEXTSTYLE0
 73
     1
 44
1.0
  0
ENDBLK
  5
F3
330
F1
100
AcDbEntity
  8
0
100
AcDbBlockEnd
  0
BLOCK
  5
FA
330
F9
100
AcDbEntity
  8
0
100
AcDbBlockBegin
  2
SW_BLOCK_DIMENSION_13
 70
     0
 10
0.0
 20
0.0
 30
0.0
  3
SW_BLOCK_DIMENSION_13
  1

  0
SOLID
  5
FC
330
F9
100
AcDbEntity
  8
EBENE_1
 62
     0
100
AcDbTrace
 10
-1.5805038061
 20
2.3665509652
 30
0.0
 11
-2.0546549479
 21
-0.7154314566
 31
0.0
 12
-1.1063526643
 22
-0.7154314566
 32
0.0
 13
-1.1063526643
 23
-0.7154314566
 33
0.0
  0
LINE
  5
FD
330
F9
100
AcDbEntity
  8
EBENE_1
 62
     0
100
AcDbLine
 10
-10.3062660664
 20
2.3665509652
 30
0.0
 11
0.0
 21
2.3665509652
 31
0.0
  0
LINE
  5
FE
330
F9
100
AcDbEntity
  8
EBENE_1
 62
     0
100
AcDbLine
 10
-1.5805038061
 20
-7.6334490348
 30
0.0
 11
-1.5805038061
 21
2.3665509652
 31
0.0
  0
MTEXT
  5
FF
330
F9
100
AcDbEntity
  8
EBENE_1
 62
     0
100
AcDbMText
 10
0.0
 20
4.0927900738
 30
0.0
 40
3.175
 41
0.0
 71
     1
 72
     1
  1
130
  7
SLDTEXTSTYLE0
 73
     1
 44
1.0
  0
ENDBLK
  5
FB
330
F9
100
AcDbEntity
  8
0
100
AcDbBlockEnd
  0
BLOCK
  5
102
330
101
100
AcDbEntity
  8
0
100
AcDbBlockBegin
  2
SW_BLOCK_DIMENSION_14
 70
     0
 10
0.0
 20
0.0
 30
0.0
  3
SW_BLOCK_DIMENSION_14
  1

  0
INSERT
  5
104
330
101
100
AcDbEntity
  8
EBENE_1
 62
     0
100
AcDbBlockReference
  2
_ORIGIN
 10
16.3971707594
 20
5.1887726877
 30
0.0
 41
0.9483022837
 42
0.9483022837
 50
0.0
  0
LINE
  5
105
330
101
100
AcDbEntity
  8
EBENE_1
 62
     0
100
AcDbLine
 10
3.2925925916
 20
9.671990294
 30
0.0
 11
2.2342592711
 21
9.671990294
 31
0.0
  0
LINE
  5
106
330
101
100
AcDbEntity
  8
EBENE_1
 62
     0
100
AcDbLine
 10
2.2342592711
 20
9.671990294
 30
0.0
 11
2.2342592711
 21
4.9388883635
 31
0.0
  0
LINE
  5
107
330
101
100
AcDbEntity
  8
EBENE_1
 62
     0
100
AcDbLine
 10
2.2342592711
 20
4.9388883635
 30
0.0
 11
3.2925925916
 21
4.9388883635
 31
0.0
  0
LINE
  5
108
330
101
100
AcDbEntity
  8
EBENE_1
 62
     0
100
AcDbLine
 10
11.5240741288
 20
9.671990294
 30
0.0
 11
12.5824074494
 21
9.671990294
 31
0.0
  0
LINE
  5
109
330
101
100
AcDbEntity
  8
EBENE_1
 62
     0
100
AcDbLine
 10
12.5824074494
 20
9.671990294
 30
0.0
 11
12.5824074494
 21
4.9388883635
 31
0.0
  0
LINE
  5
10A
330
101
100
AcDbEntity
  8
EBENE_1
 62
     0
100
AcDbLine
 10
12.5824074494
 20
4.9388883635
 30
0.0
 11
11.5240741288
 21
4.9388883635
 31
0.0
  0
LINE
  5
10B
330
101
100
AcDbEntity
  8
EBENE_1
 62
     0
100
AcDbLine
 10
24.38463321
 20
5.1887726877
 30
0.0
 11
14.8166669533
 21
5.1887726877
 31
0.0
  0
MTEXT
  5
10C
330
101
100
AcDbEntity
  8
EBENE_1
 62
     0
100
AcDbMText
 10
1.190625
 20
4.0927900738
 30
0.0
 40
3.175
 41
0.0
 71
     1
 72
     1
  1

  7
SLDTEXTSTYLE0
 73
     1
 44
1.0
  0
MTEXT
  5
10D
330
101
100
AcDbEntity
  8
EBENE_1
 62
     0
100
AcDbMText
 10
3.2925925916
 20
9.0316784373
 30
0.0
 40
3.175
 41
0.0
 71
     1
 72
     1
  1
0,00
  7
SLDTEXTSTYLE0
 73
     1
 44
1.0
  0
MTEXT
  5
10E
330
101
100
AcDbEntity
  8
EBENE_1
 62
     0
100
AcDbMText
 10
6.2324074097
 20
4.0927898409
 30
0.0
 40
3.175
 41
0.0
 71
     1
 72
     1
  1
0
  7
SLDTEXTSTYLE0
 73
     1
 44
1.0
  0
MTEXT
  5
10F
330
101
100
AcDbEntity
  8
EBENE_1
 62
     0
100
AcDbMText
 10
14.8313658863
 20
4.0927900738
 30
0.0
 40
3.175
 41
0.0
 71
     1
 72
     1
  1

  7
SLDTEXTSTYLE0
 73
     1
 44
1.0
  0
ENDBLK
  5
103
330
101
100
AcDbEntity
  8
0
100
AcDbBlockEnd
  0
BLOCK
  5
112
330
111
100
AcDbEntity
  8
0
100
AcDbBlockBegin
  2
SW_BLOCK_DIMENSION_15
 70
     0
 10
0.0
 20
0.0
 30
0.0
  3
SW_BLOCK_DIMENSION_15
  1

  0
SOLID
  5
114
330
111
100
AcDbEntity
  8
EBENE_1
 62
     0
100
AcDbTrace
 10
16.3971707594
 20
5.1887726877
 30
0.0
 11
15.9230196175
 21
2.1067902658
 31
0.0
 12
16.8713219012
 22
2.1067902658
 32
0.0
 13
16.8713219012
 23
2.1067902658
 33
0.0
  0
LINE
  5
115
330
111
100
AcDbEntity
  8
EBENE_1
 62
     0
100
AcDbLine
 10
3.2925925916
 20
9.671990294
 30
0.0
 11
2.2342592711
 21
9.671990294
 31
0.0
  0
LINE
  5
116
330
111
100
AcDbEntity
  8
EBENE_1
 62
     0
100
AcDbLine
 10
2.2342592711
 20
9.671990294
 30
0.0
 11
2.2342592711
 21
4.9388883635
 31
0.0
  0
LINE
  5
117
330
111
100
AcDbEntity
  8
EBENE_1
 62
     0
100
AcDbLine
 10
2.2342592711
 20
4.9388883635
 30
0.0
 11
3.2925925916
 21
4.9388883635
 31
0.0
  0
LINE
  5
118
330
111
100
AcDbEntity
  8
EBENE_1
 62
     0
100
AcDbLine
 10
11.5240741288
 20
9.671990294
 30
0.0
 11
12.5824074494
 21
9.671990294
 31
0.0
  0
LINE
  5
119
330
111
100
AcDbEntity
  8
EBENE_1
 62
     0
100
AcDbLine
 10
12.5824074494
 20
9.671990294
 30
0.0
 11
12.5824074494
 21
4.9388883635
 31
0.0
  0
LINE
  5
11A
330
111
100
AcDbEntity
  8
EBENE_1
 62
     0
100
AcDbLine
 10
12.5824074494
 20
4.9388883635
 30
0.0
 11
11.5240741288
 21
4.9388883635
 31
0.0
  0
LINE
  5
11B
330
111
100
AcDbEntity
  8
EBENE_1
 62
     0
100
AcDbLine
 10
23.60463321
 20
5.1887726877
 30
0.0
 11
14.8166669533
 21
5.1887726877
 31
0.0
  0
LINE
  5
11C
330
111
100
AcDbEntity
  8
EBENE_1
 62
     0
100
AcDbLine
 10
16.3971707594
 20
-20.2112273123
 30
0.0
 11
16.3971707594
 21
5.1887726877
 31
0.0
  0
MTEXT
  5
11D
330
111
100
AcDbEntity
  8
EBENE_1
 62
     0
100
AcDbMText
 10
1.190625
 20
4.0927900738
 30
0.0
 40
3.175
 41
0.0
 71
     1
 72
     1
  1

  7
SLDTEXTSTYLE0
 73
     1
 44
1.0
  0
MTEXT
  5
11E
330
111
100
AcDbEntity
  8
EBENE_1
 62
     0
100
AcDbMText
 10
3.2925925916
 20
9.0316784373
 30
0.0
 40
3.175
 41
0.0
 71
     1
 72
     1
  1
1,00
  7
SLDTEXTSTYLE0
 73
     1
 44
1.0
  0
MTEXT
  5
11F
330
111
100
AcDbEntity
  8
EBENE_1
 62
     0
100
AcDbMText
 10
2.1166665247
 20
4.0927898409
 30
0.0
 40
3.175
 41
0.0
 71
     1
 72
     1
  1
25,40
  7
SLDTEXTSTYLE0
 73
     1
 44
1.0
  0
MTEXT
  5
120
330
111
100
AcDbEntity
  8
EBENE_1
 62
     0
100
AcDbMText
 10
14.8313658863
 20
4.0927900738
 30
0.0
 40
3.175
 41
0.0
 71
     1
 72
     1
  1

  7
SLDTEXTSTYLE0
 73
     1
 44
1.0
  0
ENDBLK
  5
113
330
111
100
AcDbEntity
  8
0
100
AcDbBlockEnd
  0
BLOCK
  5
123
330
122
100
AcDbEntity
  8
0
100
AcDbBlockBegin
  2
SW_BLOCK_DIMENSION_16
 70
     0
 10
0.0
 20
0.0
 30
0.0
  3
SW_BLOCK_DIMENSION_16
  1

  0
SOLID
  5
125
330
122
100
AcDbEntity
  8
EBENE_1
 62
     0
100
AcDbTrace
 10
16.3971707594
 20
5.1887726877
 30
0.0
 11
15.9230196175
 21
2.1067902658
 31
0.0
 12
16.8713219012
 22
2.1067902658
 32
0.0
 13
16.8713219012
 23
2.1067902658
 33
0.0
  0
LINE
  5
126
330
122
100
AcDbEntity
  8
EBENE_1
 62
     0
100
AcDbLine
 10
3.2925925916
 20
9.671990294
 30
0.0
 11
2.2342592711
 21
9.671990294
 31
0.0
  0
LINE
  5
127
330
122
100
AcDbEntity
  8
EBENE_1
 62
     0
100
AcDbLine
 10
2.2342592711
 20
9.671990294
 30
0.0
 11
2.2342592711
 21
4.9388883635
 31
0.0
  0
LINE
  5
128
330
122
100
AcDbEntity
  8
EBENE_1
 62
     0
100
AcDbLine
 10
2.2342592711
 20
4.9388883635
 30
0.0
 11
3.2925925916
 21
4.9388883635
 31
0.0
  0
LINE
  5
129
330
122
100
AcDbEntity
  8
EBENE_1
 62
     0
100
AcDbLine
 10
11.5240741288
 20
9.671990294
 30
0.0
 11
12.5824074494
 21
9.671990294
 31
0.0
  0
LINE
  5
12A
330
122
100
AcDbEntity
  8
EBENE_1
 62
     0
100
AcDbLine
 10
12.5824074494
 20
9.671990294
 30
0.0
 11
12.5824074494
 21
4.9388883635
 31
0.0
  0
LINE
  5
12B
330
122
100
AcDbEntity
  8
EBENE_1
 62
     0
100
AcDbLine
 10
12.5824074494
 20
4.9388883635
 30
0.0
 11
11.5240741288
 21
4.9388883635
 31
0.0
  0
LINE
  5
12C
330
122
100
AcDbEntity
  8
EBENE_1
 62
     0
100
AcDbLine
 10
23.60463321
 20
5.1887726877
 30
0.0
 11
14.8166669533
 21
5.1887726877
 31
0.0
  0
LINE
  5
12D
330
122
100
AcDbEntity
  8
EBENE_1
 62
     0
100
AcDbLine
 10
16.3971707594
 20
-20.2112273123
 30
0.0
 11
16.3971707594
 21
5.1887726877
 31
0.0
  0
MTEXT
  5
12E
330
122
100
AcDbEntity
  8
EBENE_1
 62
     0
100
AcDbMText
 10
1.190625
 20
4.0927900738
 30
0.0
 40
3.175
 41
0.0
 71
     1
 72
     1
  1

  7
SLDTEXTSTYLE0
 73
     1
 44
1.0
  0
MTEXT
  5
12F
330
122
100
AcDbEntity
  8
EBENE_1
 62
     0
100
AcDbMText
 10
3.2925925916
 20
9.0316784373
 30
0.0
 40
3.175
 41
0.0
 71
     1
 72
     1
  1
2,00
  7
SLDTEXTSTYLE0
 73
     1
 44
1.0
  0
MTEXT
  5
130
330
122
100
AcDbEntity
  8
EBENE_1
 62
     0
100
AcDbMText
 10
2.1166665247
 20
4.0927898409
 30
0.0
 40
3.175
 41
0.0
 71
     1
 72
     1
  1
50,80
  7
SLDTEXTSTYLE0
 73
     1
 44
1.0
  0
MTEXT
  5
131
330
122
100
AcDbEntity
  8
EBENE_1
 62
     0
100
AcDbMText
 10
14.8313658863
 20
4.0927900738
 30
0.0
 40
3.175
 41
0.0
 71
     1
 72
     1
  1

  7
SLDTEXTSTYLE0
 73
     1
 44
1.0
  0
ENDBLK
  5
124
330
122
100
AcDbEntity
  8
0
100
AcDbBlockEnd
  0
BLOCK
  5
134
330
133
100
AcDbEntity
  8
0
100
AcDbBlockBegin
  2
SW_BLOCK_DIMENSION_17
 70
     0
 10
0.0
 20
0.0
 30
0.0
  3
SW_BLOCK_DIMENSION_17
  1

  0
SOLID
  5
136
330
133
100
AcDbEntity
  8
EBENE_1
 62
     0
100
AcDbTrace
 10
16.3971707594
 20
5.1887726877
 30
0.0
 11
15.9230196175
 21
2.1067902658
 31
0.0
 12
16.8713219012
 22
2.1067902658
 32
0.0
 13
16.8713219012
 23
2.1067902658
 33
0.0
  0
LINE
  5
137
330
133
100
AcDbEntity
  8
EBENE_1
 62
     0
100
AcDbLine
 10
3.2925925916
 20
9.671990294
 30
0.0
 11
2.2342592711
 21
9.671990294
 31
0.0
  0
LINE
  5
138
330
133
100
AcDbEntity
  8
EBENE_1
 62
     0
100
AcDbLine
 10
2.2342592711
 20
9.671990294
 30
0.0
 11
2.2342592711
 21
4.9388883635
 31
0.0
  0
LINE
  5
139
330
133
100
AcDbEntity
  8
EBENE_1
 62
     0
100
AcDbLine
 10
2.2342592711
 20
4.9388883635
 30
0.0
 11
3.2925925916
 21
4.9388883635
 31
0.0
  0
LINE
  5
13A
330
133
100
AcDbEntity
  8
EBENE_1
 62
     0
100
AcDbLine
 10
11.5240741288
 20
9.671990294
 30
0.0
 11
12.5824074494
 21
9.671990294
 31
0.0
  0
LINE
  5
13B
330
133
100
AcDbEntity
  8
EBENE_1
 62
     0
100
AcDbLine
 10
12.5824074494
 20
9.671990294
 30
0.0
 11
12.5824074494
 21
4.9388883635
 31
0.0
  0
LINE
  5
13C
330
133
100
AcDbEntity
  8
EBENE_1
 62
     0
100
AcDbLine
 10
12.5824074494
 20
4.9388883635
 30
0.0
 11
11.5240741288
 21
4.9388883635
 31
0.0
  0
LINE
  5
13D
330
133
100
AcDbEntity
  8
EBENE_1
 62
     0
100
AcDbLine
 10
23.60463321
 20
5.1887726877
 30
0.0
 11
14.8166669533
 21
5.1887726877
 31
0.0
  0
LINE
  5
13E
330
133
100
AcDbEntity
  8
EBENE_1
 62
     0
100
AcDbLine
 10
16.3971707594
 20
-20.2112273123
 30
0.0
 11
16.3971707594
 21
5.1887726877
 31
0.0
  0
MTEXT
  5
13F
330
133
100
AcDbEntity
  8
EBENE_1
 62
     0
100
AcDbMText
 10
1.190625
 20
4.0927900738
 30
0.0
 40
3.175
 41
0.0
 71
     1
 72
     1
  1

  7
SLDTEXTSTYLE0
 73
     1
 44
1.0
  0
MTEXT
  5
140
330
133
100
AcDbEntity
  8
EBENE_1
 62
     0
100
AcDbMText
 10
3.2925925916
 20
9.0316784373
 30
0.0
 40
3.175
 41
0.0
 71
     1
 72
     1
  1
3,00
  7
SLDTEXTSTYLE0
 73
     1
 44
1.0
  0
MTEXT
  5
141
330
133
100
AcDbEntity
  8
EBENE_1
 62
     0
100
AcDbMText
 10
2.1166665247
 20
4.0927898409
 30
0.0
 40
3.175
 41
0.0
 71
     1
 72
     1
  1
76,20
  7
SLDTEXTSTYLE0
 73
     1
 44
1.0
  0
MTEXT
  5
142
330
133
100
AcDbEntity
  8
EBENE_1
 62
     0
100
AcDbMText
 10
14.8313658863
 20
4.0927900738
 30
0.0
 40
3.175
 41
0.0
 71
     1
 72
     1
  1

  7
SLDTEXTSTYLE0
 73
     1
 44
1.0
  0
ENDBLK
  5
135
330
133
100
AcDbEntity
  8
0
100
AcDbBlockEnd
  0
BLOCK
  5
145
330
144
100
AcDbEntity
  8
0
100
AcDbBlockBegin
  2
SW_BLOCK_DIMENSION_18
 70
     0
 10
0.0
 20
0.0
 30
0.0
  3
SW_BLOCK_DIMENSION_18
  1

  0
SOLID
  5
147
330
144
100
AcDbEntity
  8
EBENE_1
 62
     0
100
AcDbTrace
 10
16.8675417449
 20
5.1887726877
 30
0.0
 11
16.3933906031
 21
2.1067902658
 31
0.0
 12
17.3416928867
 22
2.1067902658
 32
0.0
 13
17.3416928867
 23
2.1067902658
 33
0.0
  0
LINE
  5
148
330
144
100
AcDbEntity
  8
EBENE_1
 62
     0
100
AcDbLine
 10
3.5277780844
 20
9.671990294
 30
0.0
 11
2.4694447638
 21
9.671990294
 31
0.0
  0
LINE
  5
149
330
144
100
AcDbEntity
  8
EBENE_1
 62
     0
100
AcDbLine
 10
2.4694447638
 20
9.671990294
 30
0.0
 11
2.4694447638
 21
4.9388883635
 31
0.0
  0
LINE
  5
14A
330
144
100
AcDbEntity
  8
EBENE_1
 62
     0
100
AcDbLine
 10
2.4694447638
 20
4.9388883635
 30
0.0
 11
3.5277780844
 21
4.9388883635
 31
0.0
  0
LINE
  5
14B
330
144
100
AcDbEntity
  8
EBENE_1
 62
     0
100
AcDbLine
 10
11.7592596216
 20
9.671990294
 30
0.0
 11
12.8175929422
 21
9.671990294
 31
0.0
  0
LINE
  5
14C
330
144
100
AcDbEntity
  8
EBENE_1
 62
     0
100
AcDbLine
 10
12.8175929422
 20
9.671990294
 30
0.0
 11
12.8175929422
 21
4.9388883635
 31
0.0
  0
LINE
  5
14D
330
144
100
AcDbEntity
  8
EBENE_1
 62
     0
100
AcDbLine
 10
12.8175929422
 20
4.9388883635
 30
0.0
 11
11.7592596216
 21
4.9388883635
 31
0.0
  0
LINE
  5
14E
330
144
100
AcDbEntity
  8
EBENE_1
 62
     0
100
AcDbLine
 10
24.0750041956
 20
5.1887726877
 30
0.0
 11
15.2870379388
 21
5.1887726877
 31
0.0
  0
LINE
  5
14F
330
144
100
AcDbEntity
  8
EBENE_1
 62
     0
100
AcDbLine
 10
16.8675417449
 20
-20.2112273123
 30
0.0
 11
16.8675417449
 21
5.1887726877
 31
0.0
  0
MTEXT
  5
150
330
144
100
AcDbEntity
  8
EBENE_1
 62
     0
100
AcDbMText
 10
1.190625
 20
4.0927900738
 30
0.0
 40
3.175
 41
0.0
 71
     1
 72
     1
  1

  7
SLDTEXTSTYLE0
 73
     1
 44
1.0
  0
MTEXT
  5
151
330
144
100
AcDbEntity
  8
EBENE_1
 62
     0
100
AcDbMText
 10
3.5277780844
 20
9.0316784373
 30
0.0
 40
3.175
 41
0.0
 71
     1
 72
     1
  1
4,00
  7
SLDTEXTSTYLE0
 73
     1
 44
1.0
  0
MTEXT
  5
152
330
144
100
AcDbEntity
  8
EBENE_1
 62
     0
100
AcDbMText
 10
1.1759259505
 20
4.0927898409
 30
0.0
 40
3.175
 41
0.0
 71
     1
 72
     1
  1
101,60
  7
SLDTEXTSTYLE0
 73
     1
 44
1.0
  0
MTEXT
  5
153
330
144
100
AcDbEntity
  8
EBENE_1
 62
     0
100
AcDbMText
 10
15.3017368719
 20
4.0927900738
 30
0.0
 40
3.175
 41
0.0
 71
     1
 72
     1
  1

  7
SLDTEXTSTYLE0
 73
     1
 44
1.0
  0
ENDBLK
  5
146
330
144
100
AcDbEntity
  8
0
100
AcDbBlockEnd
  0
BLOCK
  5
156
330
155
100
AcDbEntity
  8
0
100
AcDbBlockBegin
  2
SW_BLOCK_DIMENSION_19
 70
     0
 10
0.0
 20
0.0
 30
0.0
  3
SW_BLOCK_DIMENSION_19
  1

  0
SOLID
  5
158
330
155
100
AcDbEntity
  8
EBENE_1
 62
     0
100
AcDbTrace
 10
16.3971707594
 20
5.1887726877
 30
0.0
 11
15.9230196175
 21
2.1067902658
 31
0.0
 12
16.8713219012
 22
2.1067902658
 32
0.0
 13
16.8713219012
 23
2.1067902658
 33
0.0
  0
LINE
  5
159
330
155
100
AcDbEntity
  8
EBENE_1
 62
     0
100
AcDbLine
 10
3.2925925916
 20
9.671990294
 30
0.0
 11
2.2342592711
 21
9.671990294
 31
0.0
  0
LINE
  5
15A
330
155
100
AcDbEntity
  8
EBENE_1
 62
     0
100
AcDbLine
 10
2.2342592711
 20
9.671990294
 30
0.0
 11
2.2342592711
 21
4.9388883635
 31
0.0
  0
LINE
  5
15B
330
155
100
AcDbEntity
  8
EBENE_1
 62
     0
100
AcDbLine
 10
2.2342592711
 20
4.9388883635
 30
0.0
 11
3.2925925916
 21
4.9388883635
 31
0.0
  0
LINE
  5
15C
330
155
100
AcDbEntity
  8
EBENE_1
 62
     0
100
AcDbLine
 10
11.5240741288
 20
9.671990294
 30
0.0
 11
12.5824074494
 21
9.671990294
 31
0.0
  0
LINE
  5
15D
330
155
100
AcDbEntity
  8
EBENE_1
 62
     0
100
AcDbLine
 10
12.5824074494
 20
9.671990294
 30
0.0
 11
12.5824074494
 21
4.9388883635
 31
0.0
  0
LINE
  5
15E
330
155
100
AcDbEntity
  8
EBENE_1
 62
     0
100
AcDbLine
 10
12.5824074494
 20
4.9388883635
 30
0.0
 11
11.5240741288
 21
4.9388883635
 31
0.0
  0
LINE
  5
15F
330
155
100
AcDbEntity
  8
EBENE_1
 62
     0
100
AcDbLine
 10
23.60463321
 20
5.1887726877
 30
0.0
 11
14.8166669533
 21
5.1887726877
 31
0.0
  0
LINE
  5
160
330
155
100
AcDbEntity
  8
EBENE_1
 62
     0
100
AcDbLine
 10
16.3971707594
 20
-20.2112273123
 30
0.0
 11
16.3971707594
 21
5.1887726877
 31
0.0
  0
MTEXT
  5
161
330
155
100
AcDbEntity
  8
EBENE_1
 62
     0
100
AcDbMText
 10
1.190625
 20
4.0927900738
 30
0.0
 40
3.175
 41
0.0
 71
     1
 72
     1
  1

  7
SLDTEXTSTYLE0
 73
     1
 44
1.0
  0
MTEXT
  5
162
330
155
100
AcDbEntity
  8
EBENE_1
 62
     0
100
AcDbMText
 10
3.2925925916
 20
9.0316784373
 30
0.0
 40
3.175
 41
0.0
 71
     1
 72
     1
  1
5,00
  7
SLDTEXTSTYLE0
 73
     1
 44
1.0
  0
MTEXT
  5
163
330
155
100
AcDbEntity
  8
EBENE_1
 62
     0
100
AcDbMText
 10
3.8805556251
 20
4.0927898409
 30
0.0
 40
3.175
 41
0.0
 71
     1
 72
     1
  1
127
  7
SLDTEXTSTYLE0
 73
     1
 44
1.0
  0
MTEXT
  5
164
330
155
100
AcDbEntity
  8
EBENE_1
 62
     0
100
AcDbMText
 10
14.8313658863
 20
4.0927900738
 30
0.0
 40
3.175
 41
0.0
 71
     1
 72
     1
  1

  7
SLDTEXTSTYLE0
 73
     1
 44
1.0
  0
ENDBLK
  5
157
330
155
100
AcDbEntity
  8
0
100
AcDbBlockEnd
  0
BLOCK
  5
167
330
166
100
AcDbEntity
  8
0
100
AcDbBlockBegin
  2
SW_NOTE_0
 70
     0
 10
0.0
 20
0.0
 30
0.0
  3
SW_NOTE_0
  1

  0
MTEXT
  5
169
330
166
100
AcDbEntity
  8
EBENE_1
 62
     0
100
AcDbMText
 10
6.7138020833
 20
4.7749217527
 30
0.0
 40
3.7041666667
 41
0.0
 71
     2
 72
     1
  1
(Inch)
  7
SLDTEXTSTYLE0
 73
     1
 44
1.0
  0
MTEXT
  5
16A
330
166
100
AcDbEntity
  8
EBENE_1
 62
     0
100
AcDbMText
 10
6.7309508326
 20
-1.1639672404
 30
0.0
 40
3.7041666667
 41
0.0
 71
     2
 72
     1
  1
mm
  7
SLDTEXTSTYLE0
 73
     1
 44
1.0
  0
ENDBLK
  5
168
330
166
100
AcDbEntity
  8
0
100
AcDbBlockEnd
  0
BLOCK
  5
172
330
171
100
AcDbEntity
  8
0
100
AcDbBlockBegin
  2
SW_NOTE_1
 70
     0
 10
0.0
 20
0.0
 30
0.0
  3
SW_NOTE_1
  1

  0
MTEXT
  5
174
330
171
100
AcDbEntity
  8
0
  6
Continuous
 62
     0
370
     0
100
AcDbMText
 10
19.893359375
 20
4.0927900738
 30
0.0
 40
3.175
 41
0.0
 71
     2
 72
     1
  1
ABP-Beyerle GmbH
  7
SLDTEXTSTYLE0
 73
     1
 44
1.0
  0
MTEXT
  5
175
330
171
100
AcDbEntity
  8
0
  6
Continuous
 62
     0
370
     0
100
AcDbMText
 10
20.6558884293
 20
-0.1405432084
 30
0.0
 40
3.175
 41
0.0
 71
     2
 72
     1
  1
Im Schollengarten 24b, 76646 Bruchsal
  7
SLDTEXTSTYLE0
 73
     1
 44
1.0
  0
MTEXT
  5
176
330
171
100
AcDbEntity
  8
0
  6
Continuous
 62
     0
370
     0
100
AcDbMText
 10
20.7863491923
 20
-4.3738764906
 30
0.0
 40
3.175
 41
0.0
 71
     2
 72
     1
  1
Tel. +49 (0)7251-9127-0, Fax. +49 (0)7251-9127-29
  7
SLDTEXTSTYLE0
 73
     1
 44
1.0
  0
MTEXT
  5
177
330
171
100
AcDbEntity
  8
0
  6
Continuous
 62
     0
370
     0
100
AcDbMText
 10
20.8392552227
 20
-8.6072097727
 30
0.0
 40
3.175
 41
0.0
 71
     2
 72
     1
  1
info@abp-beyerle.de, www.abp-beyerle.de
  7
SLDTEXTSTYLE0
 73
     1
 44
1.0
  0
ENDBLK
  5
173
330
171
100
AcDbEntity
  8
0
100
AcDbBlockEnd
  0
ENDSEC
  0
SECTION
  2
ENTITIES
  0
INSERT
  5
16D
330
1F
100
AcDbEntity
  8
EBENE_1
100
AcDbBlockReference
  2
Block1
 10
19.561342692
 20
-6.9223244521
 30
0.0
  0
MTEXT
  5
16F
330
1F
100
AcDbEntity
  8
0
  6
Continuous
 62
     7
370
     0
100
AcDbMText
 10
402.5
 20
14.7189135832
 30
0.0
 40
6.35
 41
0.0
 71
     1
 72
     1
  1
1:1
  7
SLDTEXTSTYLE1
 73
     1
 44
1.0
  0
MTEXT
  5
170
330
1F
100
AcDbEntity
  8
0
  6
Continuous
 62
     7
370
     0
100
AcDbMText
 10
168.4090458961
 20
14.7189131175
 30
0.0
 40
6.35
 41
0.0
 71
     1
 72
     1
  1
110.00192
  7
SLDTEXTSTYLE1
 73
     1
 44
1.0
  0
INSERT
  5
178
330
1F
100
AcDbEntity
  8
0
  6
Continuous
 62
     7
370
     0
100
AcDbBlockReference
  2
SW_NOTE_1
 10
35.4202146835
 20
20.1681939512
 30
0.0
  0
LINE
  5
179
330
1F
100
AcDbEntity
  8
0
  6
Continuous
 62
     7
370
    15
100
AcDbLine
 10
171.4115985391
 20
224.5542274769
 30
0.0
 11
171.6115981994
 21
224.7542289998
 31
0.0
  0
LINE
  5
17A
330
1F
100
AcDbEntity
  8
0
  6
Continuous
 62
     7
370
    15
100
AcDbLine
 10
171.6115981994
 20
242.5542283974
 30
0.0
 11
171.4115985391
 21
242.7542283923
 31
0.0
  0
LINE
  5
17B
330
1F
100
AcDbEntity
  8
0
  6
Continuous
 62
     7
370
    15
100
AcDbLine
 10
166.3115978894
 20
224.5542274769
 30
0.0
 11
171.4115985391
 21
224.5542274769
 31
0.0
  0
LINE
  5
17C
330
1F
100
AcDbEntity
  8
0
  6
Continuous
 62
     7
370
    15
100
AcDbLine
 10
171.4115985391
 20
242.7542283923
 30
0.0
 11
166.3115978894
 21
242.7542283923
 31
0.0
  0
LINE
  5
17D
330
1F
100
AcDbEntity
  8
0
  6
Continuous
 62
     7
370
    15
100
AcDbLine
 10
166.3115978894
 20
242.7542283923
 30
0.0
 11
166.1115982292
 21
242.5542283974
 31
0.0
  0
LINE
  5
17E
330
1F
100
AcDbEntity
  8
0
  6
Continuous
 62
     7
370
    15
100
AcDbLine
 10
166.1115982292
 20
224.7542289998
 30
0.0
 11
166.3115978894
 21
224.5542274769
 31
0.0
  0
LINE
  5
17F
330
1F
100
AcDbEntity
  8
0
  6
Continuous
 62
     7
370
    15
100
AcDbLine
 10
275.8644637374
 20
224.5542274769
 30
0.0
 11
276.0644671229
 21
224.7542289998
 31
0.0
  0
LINE
  5
180
330
1F
100
AcDbEntity
  8
0
  6
Continuous
 62
     7
370
    15
100
AcDbLine
 10
276.0644671229
 20
242.5542283974
 30
0.0
 11
275.8644637374
 21
242.7542283923
 31
0.0
  0
LINE
  5
181
330
1F
100
AcDbEntity
  8
0
  6
Continuous
 62
     7
370
    15
100
AcDbLine
 10
275.8644637374
 20
242.7542283923
 30
0.0
 11
270.764466813
 21
242.7542283923
 31
0.0
  0
LINE
  5
182
330
1F
100
AcDbEntity
  8
0
  6
Continuous
 62
     7
370
    15
100
AcDbLine
 10
270.764466813
 20
224.5542274769
 30
0.0
 11
275.8644637374
 21
224.5542274769
 31
0.0
  0
LINE
  5
183
330
1F
100
AcDbEntity
  8
0
  6
Continuous
 62
     7
370
    15
100
AcDbLine
 10
270.764466813
 20
242.7542283923
 30
0.0
 11
270.5644634274
 21
242.5542283974
 31
0.0
  0
LINE
  5
184
330
1F
100
AcDbEntity
  8
0
  6
Continuous
 62
     7
370
    15
100
AcDbLine
 10
270.5644634274
 20
224.7542289998
 30
0.0
 11
270.764466813
 21
224.5542274769
 31
0.0
  0
ARC
  5
185
330
1F
100
AcDbEntity
  8
0
  6
Continuous
 62
     7
370
    15
100
AcDbCircle
 10
196.3115981214
 20
239.3042283948
 30
0.0
 40
0.2999999999999829
100
AcDbArc
 50
0.0
 51
90.0
  0
ARC
  5
186
330
1F
100
AcDbEntity
  8
0
  6
Continuous
 62
     7
370
    15
100
AcDbCircle
 10
196.3115981214
 20
228.0042283948
 30
0.0
 40
0.2999999999999829
100
AcDbArc
 50
270.0
 51
0.0
  0
LINE
  5
187
330
1F
100
AcDbEntity
  8
0
  6
Continuous
 62
     7
370
    15
100
AcDbLine
 10
171.6115981994
 20
227.7042286452
 30
0.0
 11
196.3115972189
 21
227.7042286452
 31
0.0
  0
LINE
  5
188
330
1F
100
AcDbEntity
  8
0
  6
Continuous
 62
     7
370
    15
100
AcDbLine
 10
196.3115972189
 20
239.6042284537
 30
0.0
 11
171.6115981994
 21
239.6042284537
 31
0.0
  0
LINE
  5
189
330
1F
100
AcDbEntity
  8
0
  6
Continuous
 62
     7
370
    15
100
AcDbLine
 10
270.5644634274
 20
239.6042284537
 30
0.0
 11
245.8644625453
 21
239.6042284537
 31
0.0
  0
LINE
  5
18A
330
1F
100
AcDbEntity
  8
0
  6
Continuous
 62
     7
370
    15
100
AcDbLine
 10
245.8644625453
 20
227.7042286452
 30
0.0
 11
270.5644634274
 21
227.7042286452
 31
0.0
  0
ARC
  5
18B
330
1F
100
AcDbEntity
  8
0
  6
Continuous
 62
     7
370
    15
100
AcDbCircle
 10
245.8644631329
 20
228.0042283948
 30
0.0
 40
0.3000000000000398
100
AcDbArc
 50
180.0
 51
270.0
  0
ARC
  5
18C
330
1F
100
AcDbEntity
  8
0
  6
Continuous
 62
     7
370
    15
100
AcDbCircle
 10
245.8644631329
 20
239.3042283948
 30
0.0
 40
0.3000000000000398
100
AcDbArc
 50
90.0
 51
180.0
  0
LINE
  5
18D
330
1F
100
AcDbEntity
  8
0
  6
Continuous
 62
     7
370
    15
100
AcDbLine
 10
198.6115988997
 20
238.6542282048
 30
0.0
 11
196.6115985719
 21
238.6542282048
 31
0.0
  0
LINE
  5
18E
330
1F
100
AcDbEntity
  8
0
  6
Continuous
 62
     7
370
    15
100
AcDbLine
 10
196.6115985719
 20
228.6542279627
 30
0.0
 11
198.6115988997
 21
228.6542279627
 31
0.0
  0
LINE
  5
18F
330
1F
100
AcDbEntity
  8
0
  6
Continuous
 62
     7
370
    15
100
AcDbLine
 10
243.5644608644
 20
228.6542279627
 30
0.0
 11
245.5644649176
 21
228.6542279627
 31
0.0
  0
LINE
  5
190
330
1F
100
AcDbEntity
  8
0
  6
Continuous
 62
     7
370
    15
100
AcDbLine
 10
245.5644649176
 20
238.6542282048
 30
0.0
 11
243.5644608644
 21
238.6542282048
 31
0.0
  0
LINE
  5
191
330
1F
100
AcDbEntity
  8
0
  6
Continuous
 62
     7
370
    15
100
AcDbLine
 10
305.8155295161
 20
225.1792287435
 30
0.0
 11
316.2644621638
 21
225.1792287435
 31
0.0
  0
LINE
  5
192
330
1F
100
AcDbEntity
  8
0
  6
Continuous
 62
     7
370
    15
100
AcDbLine
 10
316.2644621638
 20
242.1292284136
 30
0.0
 11
316.0811331776
 21
242.1292284136
 31
0.0
  0
LINE
  5
193
330
1F
100
AcDbEntity
  8
0
  6
Continuous
 62
     7
370
    15
100
AcDbLine
 10
316.2644621638
 20
225.1792287435
 30
0.0
 11
316.5644672421
 21
225.4792282339
 31
0.0
  0
LINE
  5
194
330
1F
100
AcDbEntity
  8
0
  6
Continuous
 62
     7
370
    15
100
AcDbLine
 10
316.5644672421
 20
241.8292283993
 30
0.0
 11
316.2644621638
 21
242.1292284136
 31
0.0
  0
LINE
  5
195
330
1F
100
AcDbEntity
  8
0
  6
Continuous
 62
     7
370
    15
100
AcDbLine
 10
276.0644671229
 20
225.1792287435
 30
0.0
 11
286.3605287579
 21
225.1792287435
 31
0.0
  0
LINE
  5
196
330
1F
100
AcDbEntity
  8
0
  6
Continuous
 62
     7
370
    15
100
AcDbLine
 10
276.0949250964
 20
242.1292284136
 30
0.0
 11
276.0644671229
 21
242.1292284136
 31
0.0
  0
LINE
  5
197
330
1F
100
AcDbEntity
  8
0
  6
Continuous
 62
     7
370
    15
100
AcDbLine
 10
125.9115976004
 20
242.1292284136
 30
0.0
 11
125.61159811
 21
241.8292283993
 31
0.0
  0
LINE
  5
198
330
1F
100
AcDbEntity
  8
0
  6
Continuous
 62
     7
370
    15
100
AcDbLine
 10
125.61159811
 20
225.4792282339
 30
0.0
 11
125.9115976004
 21
225.1792287435
 31
0.0
  0
LINE
  5
199
330
1F
100
AcDbEntity
  8
0
  6
Continuous
 62
     7
370
    15
100
AcDbLine
 10
126.0949228612
 20
242.1292284136
 30
0.0
 11
125.9115976004
 21
242.1292284136
 31
0.0
  0
LINE
  5
19A
330
1F
100
AcDbEntity
  8
0
  6
Continuous
 62
     7
370
    15
100
AcDbLine
 10
125.9115976004
 20
225.1792287435
 30
0.0
 11
136.3605246601
 21
225.1792287435
 31
0.0
  0
LINE
  5
19B
330
1F
100
AcDbEntity
  8
0
  6
Continuous
 62
     7
370
    15
100
AcDbLine
 10
166.1115982292
 20
242.1292284136
 30
0.0
 11
166.0811383931
 21
242.1292284136
 31
0.0
  0
LINE
  5
19C
330
1F
100
AcDbEntity
  8
0
  6
Continuous
 62
     7
370
    15
100
AcDbLine
 10
155.8155365942
 20
225.1792287435
 30
0.0
 11
166.1115982292
 21
225.1792287435
 31
0.0
  0
ARC
  5
19D
330
1F
100
AcDbEntity
  8
0
  6
Continuous
 62
     7
370
    15
100
AcDbCircle
 10
204.6986295311
 20
230.481890697
 30
0.0
 40
5.000000000000018
100
AcDbArc
 50
85.7108466712
 51
119.125466729
  0
ARC
  5
19E
330
1F
100
AcDbEntity
  8
0
  6
Continuous
 62
     7
370
    15
100
AcDbCircle
 10
204.6986295311
 20
234.8265660927
 30
0.0
 40
5.00000000000001
100
AcDbArc
 50
240.874533271
 51
274.2891533288
  0
LINE
  5
19F
330
1F
100
AcDbEntity
  8
0
  6
Continuous
 62
     7
370
    15
100
AcDbLine
 10
205.0725784806
 20
229.8405699413
 30
0.0
 11
211.6628181843
 21
230.3348377328
 31
0.0
  0
LINE
  5
1A0
330
1F
100
AcDbEntity
  8
0
  6
Continuous
 62
     7
370
    15
100
AcDbLine
 10
211.6628181843
 20
234.9736190382
 30
0.0
 11
205.0725784806
 21
235.4678872954
 31
0.0
  0
ARC
  5
1A1
330
1F
100
AcDbEntity
  8
0
  6
Continuous
 62
     7
370
    15
100
AcDbCircle
 10
211.5880306271
 20
231.3320369508
 30
0.0
 40
1.0
100
AcDbArc
 50
274.2891533288
 51
0.0
  0
ARC
  5
1A2
330
1F
100
AcDbEntity
  8
0
  6
Continuous
 62
     7
370
    15
100
AcDbCircle
 10
211.5880306271
 20
233.9764198388
 30
0.0
 40
1.0
100
AcDbArc
 50
0.0
 51
85.7108466712
  0
ARC
  5
1A3
330
1F
100
AcDbEntity
  8
0
  6
Continuous
 62
     7
370
    15
100
AcDbCircle
 10
199.5880306271
 20
225.6542283948
 30
0.0
 40
5.500000000000012
100
AcDbArc
 50
60.874533271
 51
90.0
  0
ARC
  5
1A4
330
1F
100
AcDbEntity
  8
0
  6
Continuous
 62
     7
370
    15
100
AcDbCircle
 10
199.5880306271
 20
239.6542283948
 30
0.0
 40
5.500000000000028
100
AcDbArc
 50
270.0
 51
299.125466729
  0
LINE
  5
1A5
330
1F
100
AcDbEntity
  8
0
  6
Continuous
 62
     7
370
    15
100
AcDbLine
 10
198.6115988997
 20
231.1542283725
 30
0.0
 11
199.5880310146
 21
231.1542283725
 31
0.0
  0
LINE
  5
1A6
330
1F
100
AcDbEntity
  8
0
  6
Continuous
 62
     7
370
    15
100
AcDbLine
 10
199.5880310146
 20
234.1542279329
 30
0.0
 11
198.6115988997
 21
234.1542279329
 31
0.0
  0
ARC
  5
1A7
330
1F
100
AcDbEntity
  8
0
  6
Continuous
 62
     7
370
    15
100
AcDbCircle
 10
237.4774317232
 20
234.8265660927
 30
0.0
 40
4.999999999999979
100
AcDbArc
 50
265.7108466712
 51
299.125466729
  0
ARC
  5
1A8
330
1F
100
AcDbEntity
  8
0
  6
Continuous
 62
     7
370
    15
100
AcDbCircle
 10
237.4774317232
 20
230.481890697
 30
0.0
 40
5.000000000000004
100
AcDbArc
 50
60.874533271
 51
94.2891533288
  0
LINE
  5
1A9
330
1F
100
AcDbEntity
  8
0
  6
Continuous
 62
     7
370
    15
100
AcDbLine
 10
237.1034812836
 20
235.4678872954
 30
0.0
 11
230.5132415799
 21
234.9736190382
 31
0.0
  0
LINE
  5
1AA
330
1F
100
AcDbEntity
  8
0
  6
Continuous
 62
     7
370
    15
100
AcDbLine
 10
230.5132415799
 20
230.3348377328
 30
0.0
 11
237.1034812836
 21
229.8405699413
 31
0.0
  0
ARC
  5
1AB
330
1F
100
AcDbEntity
  8
0
  6
Continuous
 62
     7
370
    15
100
AcDbCircle
 10
230.5880306271
 20
233.9764198388
 30
0.0
 40
1.000000000000001
100
AcDbArc
 50
94.2891533288
 51
180.0
  0
ARC
  5
1AC
330
1F
100
AcDbEntity
  8
0
  6
Continuous
 62
     7
370
    15
100
AcDbCircle
 10
230.5880306271
 20
231.3320369508
 30
0.0
 40
1.000000000000001
100
AcDbArc
 50
180.0
 51
265.7108466712
  0
ARC
  5
1AD
330
1F
100
AcDbEntity
  8
0
  6
Continuous
 62
     7
370
    15
100
AcDbCircle
 10
242.5880306271
 20
239.6542283948
 30
0.0
 40
5.500000000000028
100
AcDbArc
 50
240.874533271
 51
270.0
  0
ARC
  5
1AE
330
1F
100
AcDbEntity
  8
0
  6
Continuous
 62
     7
370
    15
100
AcDbCircle
 10
242.5880306271
 20
225.6542283948
 30
0.0
 40
5.500000000000026
100
AcDbArc
 50
90.0
 51
119.125466729
  0
LINE
  5
1AF
330
1F
100
AcDbEntity
  8
0
  6
Continuous
 62
     7
370
    15
100
AcDbLine
 10
243.5644608644
 20
234.1542279329
 30
0.0
 11
242.5880324749
 21
234.1542279329
 31
0.0
  0
LINE
  5
1B0
330
1F
100
AcDbEntity
  8
0
  6
Continuous
 62
     7
370
    15
100
AcDbLine
 10
242.5880324749
 20
231.1542283725
 30
0.0
 11
243.5644608644
 21
231.1542283725
 31
0.0
  0
LINE
  5
1B1
330
1F
100
AcDbEntity
  8
0
  6
Continuous
 62
     7
370
    15
100
AcDbLine
 10
171.6115981994
 20
239.5011419877
 30
0.0
 11
171.6115981994
 21
224.7542289998
 31
0.0
  0
LINE
  5
1B2
330
1F
100
AcDbEntity
  8
0
  6
Continuous
 62
     7
370
    15
100
AcDbLine
 10
171.6115981994
 20
242.5542283974
 30
0.0
 11
171.6115981994
 21
239.5011419877
 31
0.0
  0
LINE
  5
1B3
330
1F
100
AcDbEntity
  8
0
  6
Continuous
 62
     7
370
    15
100
AcDbLine
 10
171.4115985391
 20
239.6325332094
 30
0.0
 11
171.4115985391
 21
242.7542283923
 31
0.0
  0
LINE
  5
1B4
330
1F
100
AcDbEntity
  8
0
  6
Continuous
 62
     7
370
    15
100
AcDbLine
 10
171.4115985391
 20
224.5542274769
 30
0.0
 11
171.4115985391
 21
239.6325332094
 31
0.0
  0
LINE
  5
1B5
330
1F
100
AcDbEntity
  8
0
  6
Continuous
 62
     7
370
    15
100
AcDbLine
 10
166.3115978894
 20
239.6325332094
 30
0.0
 11
166.3115978894
 21
224.5542274769
 31
0.0
  0
LINE
  5
1B6
330
1F
100
AcDbEntity
  8
0
  6
Continuous
 62
     7
370
    15
100
AcDbLine
 10
166.3115978894
 20
242.7542283923
 30
0.0
 11
166.3115978894
 21
239.6325332094
 31
0.0
  0
LINE
  5
1B7
330
1F
100
AcDbEntity
  8
0
  6
Continuous
 62
     7
370
    15
100
AcDbLine
 10
166.1115982292
 20
239.5011419877
 30
0.0
 11
166.1115982292
 21
242.5542283974
 31
0.0
  0
LINE
  5
1B8
330
1F
100
AcDbEntity
  8
0
  6
Continuous
 62
     7
370
    15
100
AcDbLine
 10
166.1115982292
 20
224.7542289998
 30
0.0
 11
166.1115982292
 21
239.5011419877
 31
0.0
  0
LINE
  5
1B9
330
1F
100
AcDbEntity
  8
0
  6
Continuous
 62
     7
370
    15
100
AcDbLine
 10
275.8644637374
 20
224.5542274769
 30
0.0
 11
275.8644637374
 21
242.7542283923
 31
0.0
  0
LINE
  5
1BA
330
1F
100
AcDbEntity
  8
0
  6
Continuous
 62
     7
370
    15
100
AcDbLine
 10
276.0644671229
 20
242.5542283974
 30
0.0
 11
276.0644671229
 21
224.7542289998
 31
0.0
  0
LINE
  5
1BB
330
1F
100
AcDbEntity
  8
0
  6
Continuous
 62
     7
370
    15
100
AcDbLine
 10
270.764466813
 20
242.7542283923
 30
0.0
 11
270.764466813
 21
224.5542274769
 31
0.0
  0
LINE
  5
1BC
330
1F
100
AcDbEntity
  8
0
  6
Continuous
 62
     7
370
    15
100
AcDbLine
 10
270.5644634274
 20
224.7542289998
 30
0.0
 11
270.5644634274
 21
242.5542283974
 31
0.0
  0
LINE
  5
1BD
330
1F
100
AcDbEntity
  8
0
  6
Continuous
 62
     7
370
    15
100
AcDbLine
 10
196.6115985719
 20
239.3042284977
 30
0.0
 11
196.6115985719
 21
228.0042281356
 31
0.0
  0
LINE
  5
1BE
330
1F
100
AcDbEntity
  8
0
  6
Continuous
 62
     7
370
    15
100
AcDbLine
 10
245.5644649176
 20
236.0952015016
 30
0.0
 11
245.5644649176
 21
239.3042284977
 31
0.0
  0
LINE
  5
1BF
330
1F
100
AcDbEntity
  8
0
  6
Continuous
 62
     7
370
    15
100
AcDbLine
 10
245.5644649176
 20
228.0042281356
 30
0.0
 11
245.5644649176
 21
236.0952015016
 31
0.0
  0
LINE
  5
1C0
330
1F
100
AcDbEntity
  8
0
  6
Continuous
 62
     7
370
    15
100
AcDbLine
 10
198.6115988997
 20
231.2267122771
 30
0.0
 11
198.6115988997
 21
238.6542282048
 31
0.0
  0
LINE
  5
1C1
330
1F
100
AcDbEntity
  8
0
  6
Continuous
 62
     7
370
    15
100
AcDbLine
 10
198.6115988997
 20
228.6542279627
 30
0.0
 11
198.6115988997
 21
231.2267122771
 31
0.0
  0
LINE
  5
1C2
330
1F
100
AcDbEntity
  8
0
  6
Continuous
 62
     7
370
    15
100
AcDbLine
 10
243.5644608644
 20
238.6542282048
 30
0.0
 11
243.5644608644
 21
228.6542279627
 31
0.0
  0
LINE
  5
1C3
330
1F
100
AcDbEntity
  8
0
  6
Continuous
 62
     7
370
    15
100
AcDbLine
 10
316.2644621638
 20
232.180610111
 30
0.0
 11
316.2644621638
 21
242.1292284136
 31
0.0
  0
LINE
  5
1C4
330
1F
100
AcDbEntity
  8
0
  6
Continuous
 62
     7
370
    15
100
AcDbLine
 10
316.2644621638
 20
225.1792287435
 30
0.0
 11
316.2644621638
 21
232.180610111
 31
0.0
  0
LINE
  5
1C5
330
1F
100
AcDbEntity
  8
0
  6
Continuous
 62
     7
370
    15
100
AcDbLine
 10
316.5644672421
 20
232.2327734884
 30
0.0
 11
316.5644672421
 21
225.4792282339
 31
0.0
  0
LINE
  5
1C6
330
1F
100
AcDbEntity
  8
0
  6
Continuous
 62
     7
370
    15
100
AcDbLine
 10
316.5644672421
 20
241.8292283993
 30
0.0
 11
316.5644672421
 21
232.2327734884
 31
0.0
  0
LINE
  5
1C7
330
1F
100
AcDbEntity
  8
0
  6
Continuous
 62
     7
370
    15
100
AcDbLine
 10
125.9115976004
 20
242.1292284136
 30
0.0
 11
125.9115976004
 21
225.1792287435
 31
0.0
  0
LINE
  5
1C8
330
1F
100
AcDbEntity
  8
0
  6
Continuous
 62
     7
370
    15
100
AcDbLine
 10
125.61159811
 20
225.4792282339
 30
0.0
 11
125.61159811
 21
241.8292283993
 31
0.0
  0
CIRCLE
  5
1C9
330
1F
100
AcDbEntity
  8
0
  6
Continuous
 62
     7
370
    15
100
AcDbCircle
 10
155.0767579112
 20
243.104541411
 30
0.0
 40
1.299999999999999
  0
CIRCLE
  5
1CA
330
1F
100
AcDbEntity
  8
0
  6
Continuous
 62
     7
370
    15
100
AcDbCircle
 10
146.0880306271
 20
242.6542283948
 30
0.0
 40
18.00000000000002
  0
CIRCLE
  5
1CB
330
1F
100
AcDbEntity
  8
0
  6
Continuous
 62
     7
370
    15
100
AcDbCircle
 10
146.5383436433
 20
233.6655011108
 30
0.0
 40
1.299999999999971
  0
CIRCLE
  5
1CC
330
1F
100
AcDbEntity
  8
0
  6
Continuous
 62
     7
370
    15
100
AcDbCircle
 10
137.0993033431
 20
242.2039153787
 30
0.0
 40
1.299999999999971
  0
CIRCLE
  5
1CD
330
1F
100
AcDbEntity
  8
0
  6
Continuous
 62
     7
370
    15
100
AcDbCircle
 10
145.637717611
 20
251.6429556789
 30
0.0
 40
1.299999999999998
  0
CIRCLE
  5
1CE
330
1F
100
AcDbEntity
  8
0
  6
Continuous
 62
     7
370
    15
100
AcDbCircle
 10
146.0880306271
 20
242.6542283948
 30
0.0
 40
20.00000000000004
  0
CIRCLE
  5
1CF
330
1F
100
AcDbEntity
  8
0
  6
Continuous
 62
     7
370
    15
100
AcDbCircle
 10
296.0880306271
 20
242.6542283948
 30
0.0
 40
18.00000000000003
  0
CIRCLE
  5
1D0
330
1F
100
AcDbEntity
  8
0
  6
Continuous
 62
     7
370
    15
100
AcDbCircle
 10
296.0880306271
 20
242.6542283948
 30
0.0
 40
20.00000000000002
  0
CIRCLE
  5
1D1
330
1F
100
AcDbEntity
  8
0
  6
Continuous
 62
     7
370
    15
100
AcDbCircle
 10
304.7721193026
 20
240.290628624
 30
0.0
 40
1.299999999999985
  0
CIRCLE
  5
1D2
330
1F
100
AcDbEntity
  8
0
  6
Continuous
 62
     7
370
    15
100
AcDbCircle
 10
298.4516303979
 20
251.3383170703
 30
0.0
 40
1.300000000000032
  0
CIRCLE
  5
1D3
330
1F
100
AcDbEntity
  8
0
  6
Continuous
 62
     7
370
    15
100
AcDbCircle
 10
287.4039419517
 20
245.0178281656
 30
0.0
 40
1.29999999999993
  0
CIRCLE
  5
1D4
330
1F
100
AcDbEntity
  8
0
  6
Continuous
 62
     7
370
    15
100
AcDbCircle
 10
293.7244308563
 20
233.9701397194
 30
0.0
 40
1.299999999999985
  0
LINE
  5
1D5
330
1F
100
AcDbEntity
  8
0
  6
Continuous
 62
     7
370
    15
100
AcDbLine
 10
212.5880312828
 20
233.976419827
 30
0.0
 11
212.5880312828
 21
231.3320374098
 31
0.0
  0
LINE
  5
1D6
330
1F
100
AcDbEntity
  8
0
  6
Continuous
 62
     7
370
    15
100
AcDbLine
 10
229.5880284814
 20
231.3320374098
 30
0.0
 11
229.5880284814
 21
233.976419827
 31
0.0
  0
LINE
  5
1D7
330
1F
100
AcDbEntity
  8
0
  6
Continuous
 62
     8
370
    15
100
AcDbLine
 10
196.3115972189
 20
227.7042286452
 30
0.0
 11
196.3115972189
 21
239.6042284537
 31
0.0
  0
LINE
  5
1D8
330
1F
100
AcDbEntity
  8
0
  6
Continuous
 62
     8
370
    15
100
AcDbLine
 10
245.8644625453
 20
236.2248104047
 30
0.0
 11
245.8644625453
 21
227.7042286452
 31
0.0
  0
LINE
  5
1D9
330
1F
100
AcDbEntity
  8
0
  6
Continuous
 62
     8
370
    15
100
AcDbLine
 10
245.8644625453
 20
239.6042284537
 30
0.0
 11
245.8644625453
 21
236.2248104047
 31
0.0
  0
LINE
  5
1DA
330
1F
100
AcDbEntity
  8
0
  6
Continuous
 62
     8
370
    15
100
AcDbLine
 10
205.0725784806
 20
231.2201296892
 30
0.0
 11
205.0725784806
 21
229.8405699413
 31
0.0
  0
LINE
  5
1DB
330
1F
100
AcDbEntity
  8
0
  6
Continuous
 62
     8
370
    15
100
AcDbLine
 10
205.0725784806
 20
235.4678872954
 30
0.0
 11
205.0725784806
 21
231.2201296892
 31
0.0
  0
LINE
  5
1DC
330
1F
100
AcDbEntity
  8
0
  6
Continuous
 62
     8
370
    15
100
AcDbLine
 10
202.2650097219
 20
230.458786523
 30
0.0
 11
202.2650097219
 21
234.8496707138
 31
0.0
  0
LINE
  5
1DD
330
1F
100
AcDbEntity
  8
0
  6
Continuous
 62
     8
370
    15
100
AcDbLine
 10
211.6628181843
 20
230.3348377328
 30
0.0
 11
211.6628181843
 21
234.9736190382
 31
0.0
  0
LINE
  5
1DE
330
1F
100
AcDbEntity
  8
0
  6
Continuous
 62
     8
370
    15
100
AcDbLine
 10
199.5880310146
 20
231.1542283725
 30
0.0
 11
199.5880310146
 21
234.1542279329
 31
0.0
  0
LINE
  5
1DF
330
1F
100
AcDbEntity
  8
0
  6
Continuous
 62
     8
370
    15
100
AcDbLine
 10
237.1034812836
 20
229.8405699413
 30
0.0
 11
237.1034812836
 21
235.4678872954
 31
0.0
  0
LINE
  5
1E0
330
1F
100
AcDbEntity
  8
0
  6
Continuous
 62
     8
370
    15
100
AcDbLine
 10
239.9110537676
 20
234.8496707138
 30
0.0
 11
239.9110537676
 21
230.458786523
 31
0.0
  0
LINE
  5
1E1
330
1F
100
AcDbEntity
  8
0
  6
Continuous
 62
     8
370
    15
100
AcDbLine
 10
230.5132415799
 20
234.9736190382
 30
0.0
 11
230.5132415799
 21
230.3348377328
 31
0.0
  0
LINE
  5
1E2
330
1F
100
AcDbEntity
  8
0
  6
Continuous
 62
     8
370
    15
100
AcDbLine
 10
242.5880324749
 20
234.1542279329
 30
0.0
 11
242.5880324749
 21
231.1542283725
 31
0.0
  0
LINE
  5
1E3
330
1F
100
AcDbEntity
  8
0
  6
Continuous
 62
     7
370
    15
100
AcDbLine
 10
166.3115978894
 20
149.1523334015
 30
0.0
 11
171.4115985391
 21
149.1523334015
 31
0.0
  0
LINE
  5
1E4
330
1F
100
AcDbEntity
  8
0
  6
Continuous
 62
     7
370
    15
100
AcDbLine
 10
171.4115985391
 20
167.3523360122
 30
0.0
 11
166.3115978894
 21
167.3523360122
 31
0.0
  0
LINE
  5
1E5
330
1F
100
AcDbEntity
  8
0
  6
Continuous
 62
     7
370
    15
100
AcDbLine
 10
171.4115985391
 20
149.1523334015
 30
0.0
 11
171.6115981994
 21
149.352336787
 31
0.0
  0
LINE
  5
1E6
330
1F
100
AcDbEntity
  8
0
  6
Continuous
 62
     7
370
    15
100
AcDbLine
 10
171.6115981994
 20
167.1523344893
 30
0.0
 11
171.4115985391
 21
167.3523360122
 31
0.0
  0
LINE
  5
1E7
330
1F
100
AcDbEntity
  8
0
  6
Continuous
 62
     7
370
    15
100
AcDbLine
 10
166.3115978894
 20
167.3523360122
 30
0.0
 11
166.1115982292
 21
167.1523344893
 31
0.0
  0
LINE
  5
1E8
330
1F
100
AcDbEntity
  8
0
  6
Continuous
 62
     7
370
    15
100
AcDbLine
 10
166.1115982292
 20
149.352336787
 30
0.0
 11
166.3115978894
 21
149.1523334015
 31
0.0
  0
LINE
  5
1E9
330
1F
100
AcDbEntity
  8
0
  6
Continuous
 62
     7
370
    15
100
AcDbLine
 10
275.8644637374
 20
149.1523334015
 30
0.0
 11
276.0644671229
 21
149.352336787
 31
0.0
  0
LINE
  5
1EA
330
1F
100
AcDbEntity
  8
0
  6
Continuous
 62
     7
370
    15
100
AcDbLine
 10
276.0644671229
 20
167.1523344893
 30
0.0
 11
275.8644637374
 21
167.3523360122
 31
0.0
  0
LINE
  5
1EB
330
1F
100
AcDbEntity
  8
0
  6
Continuous
 62
     7
370
    15
100
AcDbLine
 10
270.764466813
 20
167.3523360122
 30
0.0
 11
270.5644634274
 21
167.1523344893
 31
0.0
  0
LINE
  5
1EC
330
1F
100
AcDbEntity
  8
0
  6
Continuous
 62
     7
370
    15
100
AcDbLine
 10
270.5644634274
 20
149.352336787
 30
0.0
 11
270.764466813
 21
149.1523334015
 31
0.0
  0
LINE
  5
1ED
330
1F
100
AcDbEntity
  8
0
  6
Continuous
 62
     7
370
    15
100
AcDbLine
 10
275.8644637374
 20
167.3523360122
 30
0.0
 11
270.764466813
 21
167.3523360122
 31
0.0
  0
LINE
  5
1EE
330
1F
100
AcDbEntity
  8
0
  6
Continuous
 62
     7
370
    15
100
AcDbLine
 10
270.764466813
 20
149.1523334015
 30
0.0
 11
275.8644637374
 21
149.1523334015
 31
0.0
  0
ARC
  5
1EF
330
1F
100
AcDbEntity
  8
0
  6
Continuous
 62
     7
370
    15
100
AcDbCircle
 10
196.3115981214
 20
163.9023351837
 30
0.0
 40
0.3000000000000114
100
AcDbArc
 50
0.0
 51
90.0
  0
ARC
  5
1F0
330
1F
100
AcDbEntity
  8
0
  6
Continuous
 62
     7
370
    15
100
AcDbCircle
 10
196.3115981214
 20
152.6023351837
 30
0.0
 40
0.3000000000000114
100
AcDbArc
 50
270.0
 51
0.0
  0
LINE
  5
1F1
330
1F
100
AcDbEntity
  8
0
  6
Continuous
 62
     7
370
    15
100
AcDbLine
 10
171.6115981994
 20
152.3023345697
 30
0.0
 11
196.3115972189
 21
152.3023345697
 31
0.0
  0
LINE
  5
1F2
330
1F
100
AcDbEntity
  8
0
  6
Continuous
 62
     7
370
    15
100
AcDbLine
 10
196.3115972189
 20
164.2023348439
 30
0.0
 11
171.6115981994
 21
164.2023348439
 31
0.0
  0
LINE
  5
1F3
330
1F
100
AcDbEntity
  8
0
  6
Continuous
 62
     7
370
    15
100
AcDbLine
 10
270.5644634274
 20
164.2023348439
 30
0.0
 11
245.8644625453
 21
164.2023348439
 31
0.0
  0
LINE
  5
1F4
330
1F
100
AcDbEntity
  8
0
  6
Continuous
 62
     7
370
    15
100
AcDbLine
 10
245.8644625453
 20
152.3023345697
 30
0.0
 11
270.5644634274
 21
152.3023345697
 31
0.0
  0
ARC
  5
1F5
330
1F
100
AcDbEntity
  8
0
  6
Continuous
 62
     7
370
    15
100
AcDbCircle
 10
245.8644631329
 20
152.6023351837
 30
0.0
 40
0.3000000000000398
100
AcDbArc
 50
180.0
 51
270.0
  0
ARC
  5
1F6
330
1F
100
AcDbEntity
  8
0
  6
Continuous
 62
     7
370
    15
100
AcDbCircle
 10
245.8644631329
 20
163.9023351837
 30
0.0
 40
0.3000000000000398
100
AcDbArc
 50
90.0
 51
180.0
  0
LINE
  5
1F7
330
1F
100
AcDbEntity
  8
0
  6
Continuous
 62
     7
370
    15
100
AcDbLine
 10
198.6115988997
 20
163.2523336638
 30
0.0
 11
196.6115985719
 21
163.2523336638
 31
0.0
  0
LINE
  5
1F8
330
1F
100
AcDbEntity
  8
0
  6
Continuous
 62
     7
370
    15
100
AcDbLine
 10
196.6115985719
 20
153.2523357499
 30
0.0
 11
198.6115988997
 21
153.2523357499
 31
0.0
  0
LINE
  5
1F9
330
1F
100
AcDbEntity
  8
0
  6
Continuous
 62
     7
370
    15
100
AcDbLine
 10
243.5644608644
 20
153.2523357499
 30
0.0
 11
245.5644649176
 21
153.2523357499
 31
0.0
  0
LINE
  5
1FA
330
1F
100
AcDbEntity
  8
0
  6
Continuous
 62
     7
370
    15
100
AcDbLine
 10
245.5644649176
 20
163.2523336638
 30
0.0
 11
243.5644608644
 21
163.2523336638
 31
0.0
  0
LINE
  5
1FB
330
1F
100
AcDbEntity
  8
0
  6
Continuous
 62
     7
370
    15
100
AcDbLine
 10
276.0644671229
 20
149.7773365307
 30
0.0
 11
276.0880258588
 21
149.7773365307
 31
0.0
  0
LINE
  5
1FC
330
1F
100
AcDbEntity
  8
0
  6
Continuous
 62
     7
370
    15
100
AcDbLine
 10
276.0880258588
 20
166.7273347456
 30
0.0
 11
276.0644671229
 21
166.7273347456
 31
0.0
  0
LINE
  5
1FD
330
1F
100
AcDbEntity
  8
0
  6
Continuous
 62
     7
370
    15
100
AcDbLine
 10
316.0880324153
 20
149.7773365307
 30
0.0
 11
316.2644621638
 21
149.7773365307
 31
0.0
  0
LINE
  5
1FE
330
1F
100
AcDbEntity
  8
0
  6
Continuous
 62
     7
370
    15
100
AcDbLine
 10
316.2644621638
 20
166.7273347456
 30
0.0
 11
316.0880324153
 21
166.7273347456
 31
0.0
  0
LINE
  5
1FF
330
1F
100
AcDbEntity
  8
0
  6
Continuous
 62
     7
370
    15
100
AcDbLine
 10
316.2644621638
 20
149.7773365307
 30
0.0
 11
316.5644672421
 21
150.0773341585
 31
0.0
  0
LINE
  5
200
330
1F
100
AcDbEntity
  8
0
  6
Continuous
 62
     7
370
    15
100
AcDbLine
 10
316.5644672421
 20
166.4273352552
 30
0.0
 11
316.2644621638
 21
166.7273347456
 31
0.0
  0
LINE
  5
201
330
1F
100
AcDbEntity
  8
0
  6
Continuous
 62
     7
370
    15
100
AcDbLine
 10
166.1115982292
 20
166.7273347456
 30
0.0
 11
166.0880301801
 21
166.7273347456
 31
0.0
  0
LINE
  5
202
330
1F
100
AcDbEntity
  8
0
  6
Continuous
 62
     7
370
    15
100
AcDbLine
 10
166.0880301801
 20
149.7773365307
 30
0.0
 11
166.1115982292
 21
149.7773365307
 31
0.0
  0
LINE
  5
203
330
1F
100
AcDbEntity
  8
0
  6
Continuous
 62
     7
370
    15
100
AcDbLine
 10
126.0880310742
 20
166.7273347456
 30
0.0
 11
125.9115976004
 21
166.7273347456
 31
0.0
  0
LINE
  5
204
330
1F
100
AcDbEntity
  8
0
  6
Continuous
 62
     7
370
    15
100
AcDbLine
 10
125.9115976004
 20
149.7773365307
 30
0.0
 11
126.0880310742
 21
149.7773365307
 31
0.0
  0
LINE
  5
205
330
1F
100
AcDbEntity
  8
0
  6
Continuous
 62
     7
370
    15
100
AcDbLine
 10
125.9115976004
 20
166.7273347456
 30
0.0
 11
125.61159811
 21
166.4273352552
 31
0.0
  0
LINE
  5
206
330
1F
100
AcDbEntity
  8
0
  6
Continuous
 62
     7
370
    15
100
AcDbLine
 10
125.61159811
 20
150.0773341585
 30
0.0
 11
125.9115976004
 21
149.7773365307
 31
0.0
  0
LINE
  5
207
330
1F
100
AcDbEntity
  8
0
  6
Continuous
 62
     7
370
    15
100
AcDbLine
 10
166.0880301801
 20
147.5523361195
 30
0.0
 11
165.8880305199
 21
147.7523357797
 31
0.0
  0
LINE
  5
208
330
1F
100
AcDbEntity
  8
0
  6
Continuous
 62
     7
370
    15
100
AcDbLine
 10
126.2880307344
 20
147.7523357797
 30
0.0
 11
126.0880310742
 21
147.5523361195
 31
0.0
  0
LINE
  5
209
330
1F
100
AcDbEntity
  8
0
  6
Continuous
 62
     7
370
    15
100
AcDbLine
 10
126.0880310742
 20
147.5523361195
 30
0.0
 11
126.0880310742
 21
144.7523334253
 31
0.0
  0
LINE
  5
20A
330
1F
100
AcDbEntity
  8
0
  6
Continuous
 62
     7
370
    15
100
AcDbLine
 10
166.0880301801
 20
144.7523334253
 30
0.0
 11
166.0880301801
 21
147.5523361195
 31
0.0
  0
LINE
  5
20B
330
1F
100
AcDbEntity
  8
0
  6
Continuous
 62
     7
370
    15
100
AcDbLine
 10
126.0880310742
 20
144.7523334253
 30
0.0
 11
128.088031402
 21
142.7523368228
 31
0.0
  0
LINE
  5
20C
330
1F
100
AcDbEntity
  8
0
  6
Continuous
 62
     7
370
    15
100
AcDbLine
 10
164.0880298523
 20
142.7523368228
 30
0.0
 11
166.0880301801
 21
144.7523334253
 31
0.0
  0
LINE
  5
20D
330
1F
100
AcDbEntity
  8
0
  6
Continuous
 62
     7
370
    15
100
AcDbLine
 10
276.0880258588
 20
147.5523361195
 30
0.0
 11
276.0880258588
 21
144.7523334253
 31
0.0
  0
LINE
  5
20E
330
1F
100
AcDbEntity
  8
0
  6
Continuous
 62
     7
370
    15
100
AcDbLine
 10
316.0880324153
 20
144.7523334253
 30
0.0
 11
316.0880324153
 21
147.5523361195
 31
0.0
  0
LINE
  5
20F
330
1F
100
AcDbEntity
  8
0
  6
Continuous
 62
     7
370
    15
100
AcDbLine
 10
316.0880324153
 20
147.5523361195
 30
0.0
 11
315.8880290297
 21
147.7523357797
 31
0.0
  0
LINE
  5
210
330
1F
100
AcDbEntity
  8
0
  6
Continuous
 62
     7
370
    15
100
AcDbLine
 10
276.2880292443
 20
147.7523357797
 30
0.0
 11
276.0880258588
 21
147.5523361195
 31
0.0
  0
LINE
  5
211
330
1F
100
AcDbEntity
  8
0
  6
Continuous
 62
     7
370
    15
100
AcDbLine
 10
276.0880258588
 20
144.7523334253
 30
0.0
 11
278.0880299119
 21
142.7523368228
 31
0.0
  0
LINE
  5
212
330
1F
100
AcDbEntity
  8
0
  6
Continuous
 62
     7
370
    15
100
AcDbLine
 10
314.0880283622
 20
142.7523368228
 30
0.0
 11
316.0880324153
 21
144.7523334253
 31
0.0
  0
LINE
  5
213
330
1F
100
AcDbEntity
  8
0
  6
Continuous
 62
     7
370
    15
100
AcDbLine
 10
167.5880313573
 20
175.7523347813
 30
0.0
 11
165.2880315391
 21
175.7523347813
 31
0.0
  0
LINE
  5
214
330
1F
100
AcDbEntity
  8
0
  6
Continuous
 62
     7
370
    15
100
AcDbLine
 10
189.1797040311
 20
175.7523347813
 30
0.0
 11
171.0880309997
 21
175.7523347813
 31
0.0
  0
LINE
  5
215
330
1F
100
AcDbEntity
  8
0
  6
Continuous
 62
     7
370
    15
100
AcDbLine
 10
171.0880309997
 20
169.7523356605
 30
0.0
 11
189.1797040311
 21
169.7523356605
 31
0.0
  0
LINE
  5
216
330
1F
100
AcDbEntity
  8
0
  6
Continuous
 62
     7
370
    15
100
AcDbLine
 10
165.9827646521
 20
169.7523356605
 30
0.0
 11
167.5880313573
 21
169.7523356605
 31
0.0
  0
ARC
  5
217
330
1F
100
AcDbEntity
  8
0
  6
Continuous
 62
     7
370
    15
100
AcDbCircle
 10
189.1797037139
 20
170.7523351837
 30
0.0
 40
5.000000000000028
100
AcDbArc
 50
58.9972808661
 51
90.0
  0
ARC
  5
218
330
1F
100
AcDbEntity
  8
0
  6
Continuous
 62
     7
370
    15
100
AcDbCircle
 10
189.1797037139
 20
174.7523351837
 30
0.0
 40
5.000000000000048
100
AcDbArc
 50
270.0
 51
301.0027191339
  0
ARC
  5
219
330
1F
100
AcDbEntity
  8
0
  6
Continuous
 62
     7
370
    15
100
AcDbCircle
 10
165.2880306271
 20
175.6523351837
 30
0.0
 40
0.1000000000000227
100
AcDbArc
 50
90.0
 51
180.0
  0
ARC
  5
21A
330
1F
100
AcDbEntity
  8
0
  6
Continuous
 62
     7
370
    15
100
AcDbCircle
 10
204.6986295311
 20
170.5799974858
 30
0.0
 40
5.00000000000001
100
AcDbArc
 50
85.7108466712
 51
119.125466729
  0
ARC
  5
21B
330
1F
100
AcDbEntity
  8
0
  6
Continuous
 62
     7
370
    15
100
AcDbCircle
 10
204.6986295311
 20
174.9246728815
 30
0.0
 40
5.00000000000001
100
AcDbArc
 50
240.874533271
 51
274.2891533288
  0
LINE
  5
21C
330
1F
100
AcDbEntity
  8
0
  6
Continuous
 62
     7
370
    15
100
AcDbLine
 10
205.0725784806
 20
169.9386765439
 30
0.0
 11
211.6628181843
 21
170.4329443354
 31
0.0
  0
LINE
  5
21D
330
1F
100
AcDbEntity
  8
0
  6
Continuous
 62
     7
370
    15
100
AcDbLine
 10
211.6628181843
 20
175.0717261065
 30
0.0
 11
205.0725784806
 21
175.565993898
 31
0.0
  0
LINE
  5
21E
330
1F
100
AcDbEntity
  8
0
  6
Continuous
 62
     7
370
    15
100
AcDbLine
 10
165.1880298463
 20
175.5023342747
 30
0.0
 11
164.9533086178
 21
175.5023342747
 31
0.0
  0
ARC
  5
21F
330
1F
100
AcDbEntity
  8
0
  6
Continuous
 62
     7
370
    15
100
AcDbCircle
 10
211.5880306271
 20
171.4301437397
 30
0.0
 40
1.0
100
AcDbArc
 50
274.2891533288
 51
0.0
  0
ARC
  5
220
330
1F
100
AcDbEntity
  8
0
  6
Continuous
 62
     7
370
    15
100
AcDbCircle
 10
211.5880306271
 20
174.0745266277
 30
0.0
 40
1.000000000000028
100
AcDbArc
 50
0.0
 51
85.7108466712
  0
ARC
  5
221
330
1F
100
AcDbEntity
  8
0
  6
Continuous
 62
     7
370
    15
100
AcDbCircle
 10
194.5880306271
 20
165.7523351837
 30
0.0
 40
5.5
100
AcDbArc
 50
90.0
 51
121.0027191339
  0
ARC
  5
222
330
1F
100
AcDbEntity
  8
0
  6
Continuous
 62
     7
370
    15
100
AcDbCircle
 10
194.5880306271
 20
179.7523351837
 30
0.0
 40
5.5
100
AcDbArc
 50
238.9972808661
 51
270.0
  0
ARC
  5
223
330
1F
100
AcDbEntity
  8
0
  6
Continuous
 62
     7
370
    15
100
AcDbCircle
 10
199.5880306271
 20
165.7523351837
 30
0.0
 40
5.5
100
AcDbArc
 50
60.874533271
 51
90.0
  0
ARC
  5
224
330
1F
100
AcDbEntity
  8
0
  6
Continuous
 62
     7
370
    15
100
AcDbCircle
 10
199.5880306271
 20
179.7523351837
 30
0.0
 40
5.499999999999988
100
AcDbArc
 50
270.0
 51
299.125466729
  0
LINE
  5
225
330
1F
100
AcDbEntity
  8
0
  6
Continuous
 62
     7
370
    15
100
AcDbLine
 10
194.5880320577
 20
171.2523349751
 30
0.0
 11
199.5880310146
 21
171.2523349751
 31
0.0
  0
LINE
  5
226
330
1F
100
AcDbEntity
  8
0
  6
Continuous
 62
     7
370
    15
100
AcDbLine
 10
199.5880310146
 20
174.2523354668
 30
0.0
 11
194.5880320577
 21
174.2523354668
 31
0.0
  0
LINE
  5
227
330
1F
100
AcDbEntity
  8
0
  6
Continuous
 62
     7
370
    15
100
AcDbLine
 10
252.9963594583
 20
169.7523356605
 30
0.0
 11
276.1881765632
 21
169.7523356605
 31
0.0
  0
LINE
  5
228
330
1F
100
AcDbEntity
  8
0
  6
Continuous
 62
     7
370
    15
100
AcDbLine
 10
276.8880244998
 20
175.7523347813
 30
0.0
 11
252.9963594583
 21
175.7523347813
 31
0.0
  0
ARC
  5
229
330
1F
100
AcDbEntity
  8
0
  6
Continuous
 62
     7
370
    15
100
AcDbCircle
 10
276.8880306271
 20
175.6523351837
 30
0.0
 40
0.1000000000000227
100
AcDbArc
 50
0.0
 51
90.0
  0
ARC
  5
22A
330
1F
100
AcDbEntity
  8
0
  6
Continuous
 62
     7
370
    15
100
AcDbCircle
 10
252.9963575403
 20
174.7523351837
 30
0.0
 40
5.000000000000028
100
AcDbArc
 50
238.9972808661
 51
270.0
  0
ARC
  5
22B
330
1F
100
AcDbEntity
  8
0
  6
Continuous
 62
     7
370
    15
100
AcDbCircle
 10
252.9963575403
 20
170.7523351837
 30
0.0
 40
5.000000000000028
100
AcDbArc
 50
90.0
 51
121.0027191339
  0
ARC
  5
22C
330
1F
100
AcDbEntity
  8
0
  6
Continuous
 62
     7
370
    15
100
AcDbCircle
 10
237.4774317232
 20
174.9246728815
 30
0.0
 40
5.000000000000007
100
AcDbArc
 50
265.7108466712
 51
299.125466729
  0
ARC
  5
22D
330
1F
100
AcDbEntity
  8
0
  6
Continuous
 62
     7
370
    15
100
AcDbCircle
 10
237.4774317232
 20
170.5799974858
 30
0.0
 40
4.999999999999979
100
AcDbArc
 50
60.874533271
 51
94.2891533288
  0
LINE
  5
22E
330
1F
100
AcDbEntity
  8
0
  6
Continuous
 62
     7
370
    15
100
AcDbLine
 10
237.1034812836
 20
175.565993898
 30
0.0
 11
230.5132415799
 21
175.0717261065
 31
0.0
  0
LINE
  5
22F
330
1F
100
AcDbEntity
  8
0
  6
Continuous
 62
     7
370
    15
100
AcDbLine
 10
230.5132415799
 20
170.4329443354
 30
0.0
 11
237.1034812836
 21
169.9386765439
 31
0.0
  0
LINE
  5
230
330
1F
100
AcDbEntity
  8
0
  6
Continuous
 62
     7
370
    15
100
AcDbLine
 10
277.2254761962
 20
175.5023342747
 30
0.0
 11
276.9880261926
 21
175.5023342747
 31
0.0
  0
ARC
  5
231
330
1F
100
AcDbEntity
  8
0
  6
Continuous
 62
     7
370
    15
100
AcDbCircle
 10
230.5880306271
 20
174.0745266277
 30
0.0
 40
1.000000000000001
100
AcDbArc
 50
94.2891533288
 51
180.0
  0
ARC
  5
232
330
1F
100
AcDbEntity
  8
0
  6
Continuous
 62
     7
370
    15
100
AcDbCircle
 10
230.5880306271
 20
171.4301437397
 30
0.0
 40
1.000000000000001
100
AcDbArc
 50
180.0
 51
265.7108466712
  0
ARC
  5
233
330
1F
100
AcDbEntity
  8
0
  6
Continuous
 62
     7
370
    15
100
AcDbCircle
 10
247.5880306271
 20
179.7523351837
 30
0.0
 40
5.50000000000002
100
AcDbArc
 50
270.0
 51
301.0027191339
  0
ARC
  5
234
330
1F
100
AcDbEntity
  8
0
  6
Continuous
 62
     7
370
    15
100
AcDbCircle
 10
247.5880306271
 20
165.7523351837
 30
0.0
 40
5.50000000000002
100
AcDbArc
 50
58.9972808661
 51
90.0
  0
ARC
  5
235
330
1F
100
AcDbEntity
  8
0
  6
Continuous
 62
     7
370
    15
100
AcDbCircle
 10
242.5880306271
 20
179.7523351837
 30
0.0
 40
5.500000000000026
100
AcDbArc
 50
240.874533271
 51
270.0
  0
ARC
  5
236
330
1F
100
AcDbEntity
  8
0
  6
Continuous
 62
     7
370
    15
100
AcDbCircle
 10
242.5880306271
 20
165.7523351837
 30
0.0
 40
5.500000000000026
100
AcDbArc
 50
90.0
 51
119.125466729
  0
LINE
  5
237
330
1F
100
AcDbEntity
  8
0
  6
Continuous
 62
     7
370
    15
100
AcDbLine
 10
247.5880277065
 20
174.2523354668
 30
0.0
 11
242.5880324749
 21
174.2523354668
 31
0.0
  0
LINE
  5
238
330
1F
100
AcDbEntity
  8
0
  6
Continuous
 62
     7
370
    15
100
AcDbLine
 10
242.5880324749
 20
171.2523349751
 30
0.0
 11
247.5880277065
 21
171.2523349751
 31
0.0
  0
LINE
  5
239
330
1F
100
AcDbEntity
  8
0
  6
Continuous
 62
     7
370
    15
100
AcDbLine
 10
316.0880324153
 20
194.9523351694
 30
0.0
 11
315.788027337
 21
195.2523351837
 31
0.0
  0
LINE
  5
23A
330
1F
100
AcDbEntity
  8
0
  6
Continuous
 62
     7
370
    15
100
AcDbLine
 10
276.3880309371
 20
195.2523351837
 30
0.0
 11
276.0880258588
 21
194.9523351694
 31
0.0
  0
LINE
  5
23B
330
1F
100
AcDbEntity
  8
0
  6
Continuous
 62
     7
370
    15
100
AcDbLine
 10
276.0880258588
 20
168.6868691075
 30
0.0
 11
276.0880258588
 21
148.0523334075
 31
0.0
  0
LINE
  5
23C
330
1F
100
AcDbEntity
  8
0
  6
Continuous
 62
     7
370
    15
100
AcDbLine
 10
276.0880258588
 20
194.9523351694
 30
0.0
 11
276.0880258588
 21
191.7943549532
 31
0.0
  0
LINE
  5
23D
330
1F
100
AcDbEntity
  8
0
  6
Continuous
 62
     7
370
    15
100
AcDbLine
 10
316.0880324153
 20
191.7958772
 30
0.0
 11
316.0880324153
 21
194.9523351694
 31
0.0
  0
LINE
  5
23E
330
1F
100
AcDbEntity
  8
0
  6
Continuous
 62
     7
370
    15
100
AcDbLine
 10
316.0880324153
 20
148.0523334075
 30
0.0
 11
316.0880324153
 21
168.7246789414
 31
0.0
  0
LINE
  5
23F
330
1F
100
AcDbEntity
  8
0
  6
Continuous
 62
     7
370
    15
100
AcDbLine
 10
276.0880258588
 20
148.0523334075
 30
0.0
 11
276.3880309371
 21
147.7523357797
 31
0.0
  0
LINE
  5
240
330
1F
100
AcDbEntity
  8
0
  6
Continuous
 62
     7
370
    15
100
AcDbLine
 10
315.788027337
 20
147.7523357797
 30
0.0
 11
316.0880324153
 21
148.0523334075
 31
0.0
  0
LINE
  5
241
330
1F
100
AcDbEntity
  8
0
  6
Continuous
 62
     7
370
    15
100
AcDbLine
 10
126.0880310742
 20
168.6868691075
 30
0.0
 11
126.0880310742
 21
148.0523334075
 31
0.0
  0
LINE
  5
242
330
1F
100
AcDbEntity
  8
0
  6
Continuous
 62
     7
370
    15
100
AcDbLine
 10
126.0880310742
 20
194.9523351694
 30
0.0
 11
126.0880310742
 21
191.7943549532
 31
0.0
  0
LINE
  5
243
330
1F
100
AcDbEntity
  8
0
  6
Continuous
 62
     7
370
    15
100
AcDbLine
 10
166.0880301801
 20
191.7958772
 30
0.0
 11
166.0880301801
 21
194.9523351694
 31
0.0
  0
LINE
  5
244
330
1F
100
AcDbEntity
  8
0
  6
Continuous
 62
     7
370
    15
100
AcDbLine
 10
166.0880301801
 20
148.0523334075
 30
0.0
 11
166.0880301801
 21
168.7246789414
 31
0.0
  0
LINE
  5
245
330
1F
100
AcDbEntity
  8
0
  6
Continuous
 62
     7
370
    15
100
AcDbLine
 10
166.0880301801
 20
194.9523351694
 30
0.0
 11
165.7880306897
 21
195.2523351837
 31
0.0
  0
LINE
  5
246
330
1F
100
AcDbEntity
  8
0
  6
Continuous
 62
     7
370
    15
100
AcDbLine
 10
126.3880305646
 20
195.2523351837
 30
0.0
 11
126.0880310742
 21
194.9523351694
 31
0.0
  0
LINE
  5
247
330
1F
100
AcDbEntity
  8
0
  6
Continuous
 62
     7
370
    15
100
AcDbLine
 10
126.0880310742
 20
148.0523334075
 30
0.0
 11
126.3880305646
 21
147.7523357797
 31
0.0
  0
LINE
  5
248
330
1F
100
AcDbEntity
  8
0
  6
Continuous
 62
     7
370
    15
100
AcDbLine
 10
165.7880306897
 20
147.7523357797
 30
0.0
 11
166.0880301801
 21
148.0523334075
 31
0.0
  0
LINE
  5
249
330
1F
100
AcDbEntity
  8
0
  6
Continuous
 62
     7
370
    15
100
AcDbLine
 10
171.4115985391
 20
151.3915867734
 30
0.0
 11
171.4115985391
 21
167.3523360122
 31
0.0
  0
LINE
  5
24A
330
1F
100
AcDbEntity
  8
0
  6
Continuous
 62
     7
370
    15
100
AcDbLine
 10
171.4115985391
 20
149.1523334015
 30
0.0
 11
171.4115985391
 21
151.3915867734
 31
0.0
  0
LINE
  5
24B
330
1F
100
AcDbEntity
  8
0
  6
Continuous
 62
     7
370
    15
100
AcDbLine
 10
166.3115978894
 20
151.3915867734
 30
0.0
 11
166.3115978894
 21
149.1523334015
 31
0.0
  0
LINE
  5
24C
330
1F
100
AcDbEntity
  8
0
  6
Continuous
 62
     7
370
    15
100
AcDbLine
 10
166.3115978894
 20
167.3523360122
 30
0.0
 11
166.3115978894
 21
151.3915867734
 31
0.0
  0
LINE
  5
24D
330
1F
100
AcDbEntity
  8
0
  6
Continuous
 62
     7
370
    15
100
AcDbLine
 10
171.6115981994
 20
151.5423716236
 30
0.0
 11
171.6115981994
 21
149.352336787
 31
0.0
  0
LINE
  5
24E
330
1F
100
AcDbEntity
  8
0
  6
Continuous
 62
     7
370
    15
100
AcDbLine
 10
171.6115981994
 20
167.1523344893
 30
0.0
 11
171.6115981994
 21
151.5423716236
 31
0.0
  0
LINE
  5
24F
330
1F
100
AcDbEntity
  8
0
  6
Continuous
 62
     7
370
    15
100
AcDbLine
 10
166.1115982292
 20
151.5423716236
 30
0.0
 11
166.1115982292
 21
167.1523344893
 31
0.0
  0
LINE
  5
250
330
1F
100
AcDbEntity
  8
0
  6
Continuous
 62
     7
370
    15
100
AcDbLine
 10
166.1115982292
 20
149.352336787
 30
0.0
 11
166.1115982292
 21
151.5423716236
 31
0.0
  0
LINE
  5
251
330
1F
100
AcDbEntity
  8
0
  6
Continuous
 62
     7
370
    15
100
AcDbLine
 10
275.8644637374
 20
162.6509078968
 30
0.0
 11
275.8644637374
 21
167.3523360122
 31
0.0
  0
LINE
  5
252
330
1F
100
AcDbEntity
  8
0
  6
Continuous
 62
     7
370
    15
100
AcDbLine
 10
275.8644637374
 20
149.1523334015
 30
0.0
 11
275.8644637374
 21
162.6509078968
 31
0.0
  0
LINE
  5
253
330
1F
100
AcDbEntity
  8
0
  6
Continuous
 62
     7
370
    15
100
AcDbLine
 10
276.0644671229
 20
162.5542366136
 30
0.0
 11
276.0644671229
 21
149.352336787
 31
0.0
  0
LINE
  5
254
330
1F
100
AcDbEntity
  8
0
  6
Continuous
 62
     7
370
    15
100
AcDbLine
 10
276.0644671229
 20
167.1523344893
 30
0.0
 11
276.0644671229
 21
162.5542366136
 31
0.0
  0
LINE
  5
255
330
1F
100
AcDbEntity
  8
0
  6
Continuous
 62
     7
370
    15
100
AcDbLine
 10
270.5644634274
 20
162.5542366136
 30
0.0
 11
270.5644634274
 21
167.1523344893
 31
0.0
  0
LINE
  5
256
330
1F
100
AcDbEntity
  8
0
  6
Continuous
 62
     7
370
    15
100
AcDbLine
 10
270.5644634274
 20
149.352336787
 30
0.0
 11
270.5644634274
 21
162.5542366136
 31
0.0
  0
LINE
  5
257
330
1F
100
AcDbEntity
  8
0
  6
Continuous
 62
     7
370
    15
100
AcDbLine
 10
270.764466813
 20
162.6509078968
 30
0.0
 11
270.764466813
 21
149.1523334015
 31
0.0
  0
LINE
  5
258
330
1F
100
AcDbEntity
  8
0
  6
Continuous
 62
     7
370
    15
100
AcDbLine
 10
270.764466813
 20
167.3523360122
 30
0.0
 11
270.764466813
 21
162.6509078968
 31
0.0
  0
LINE
  5
259
330
1F
100
AcDbEntity
  8
0
  6
Continuous
 62
     7
370
    15
100
AcDbLine
 10
196.6115985719
 20
162.2037948299
 30
0.0
 11
196.6115985719
 21
152.6023359228
 31
0.0
  0
LINE
  5
25A
330
1F
100
AcDbEntity
  8
0
  6
Continuous
 62
     7
370
    15
100
AcDbLine
 10
196.6115985719
 20
163.9023334909
 30
0.0
 11
196.6115985719
 21
162.2037948299
 31
0.0
  0
LINE
  5
25B
330
1F
100
AcDbEntity
  8
0
  6
Continuous
 62
     7
370
    15
100
AcDbLine
 10
245.5644649176
 20
153.1568304825
 30
0.0
 11
245.5644649176
 21
163.9023334909
 31
0.0
  0
LINE
  5
25C
330
1F
100
AcDbEntity
  8
0
  6
Continuous
 62
     7
370
    15
100
AcDbLine
 10
245.5644649176
 20
152.6023359228
 30
0.0
 11
245.5644649176
 21
153.1568304825
 31
0.0
  0
LINE
  5
25D
330
1F
100
AcDbEntity
  8
0
  6
Continuous
 62
     7
370
    15
100
AcDbLine
 10
198.6115988997
 20
153.2523357499
 30
0.0
 11
198.6115988997
 21
163.2523336638
 31
0.0
  0
LINE
  5
25E
330
1F
100
AcDbEntity
  8
0
  6
Continuous
 62
     7
370
    15
100
AcDbLine
 10
243.5644608644
 20
163.2523336638
 30
0.0
 11
243.5644608644
 21
153.2523357499
 31
0.0
  0
LINE
  5
25F
330
1F
100
AcDbEntity
  8
0
  6
Continuous
 62
     7
370
    15
100
AcDbLine
 10
316.2644621638
 20
149.7773365307
 30
0.0
 11
316.2644621638
 21
166.7273347456
 31
0.0
  0
LINE
  5
260
330
1F
100
AcDbEntity
  8
0
  6
Continuous
 62
     7
370
    15
100
AcDbLine
 10
316.5644672421
 20
166.4273352552
 30
0.0
 11
316.5644672421
 21
150.0773341585
 31
0.0
  0
LINE
  5
261
330
1F
100
AcDbEntity
  8
0
  6
Continuous
 62
     7
370
    15
100
AcDbLine
 10
125.9115976004
 20
166.5982366729
 30
0.0
 11
125.9115976004
 21
149.7773365307
 31
0.0
  0
LINE
  5
262
330
1F
100
AcDbEntity
  8
0
  6
Continuous
 62
     7
370
    15
100
AcDbLine
 10
125.9115976004
 20
166.7273347456
 30
0.0
 11
125.9115976004
 21
166.5982366729
 31
0.0
  0
LINE
  5
263
330
1F
100
AcDbEntity
  8
0
  6
Continuous
 62
     7
370
    15
100
AcDbLine
 10
125.61159811
 20
166.3028062511
 30
0.0
 11
125.61159811
 21
166.4273352552
 31
0.0
  0
LINE
  5
264
330
1F
100
AcDbEntity
  8
0
  6
Continuous
 62
     7
370
    15
100
AcDbLine
 10
125.61159811
 20
150.0773341585
 30
0.0
 11
125.61159811
 21
166.3028062511
 31
0.0
  0
LINE
  5
265
330
1F
100
AcDbEntity
  8
0
  6
Continuous
 62
     7
370
    15
100
AcDbLine
 10
166.0880301801
 20
147.5523361195
 30
0.0
 11
126.0880310742
 21
147.5523361195
 31
0.0
  0
LINE
  5
266
330
1F
100
AcDbEntity
  8
0
  6
Continuous
 62
     7
370
    15
100
AcDbLine
 10
165.8632312623
 20
147.7523357797
 30
0.0
 11
165.8880305199
 21
147.7523357797
 31
0.0
  0
LINE
  5
267
330
1F
100
AcDbEntity
  8
0
  6
Continuous
 62
     7
370
    15
100
AcDbLine
 10
126.2880307344
 20
147.7523357797
 30
0.0
 11
165.8632312623
 21
147.7523357797
 31
0.0
  0
LINE
  5
268
330
1F
100
AcDbEntity
  8
0
  6
Continuous
 62
     7
370
    15
100
AcDbLine
 10
166.0629794655
 20
144.7523334253
 30
0.0
 11
166.0880301801
 21
144.7523334253
 31
0.0
  0
LINE
  5
269
330
1F
100
AcDbEntity
  8
0
  6
Continuous
 62
     7
370
    15
100
AcDbLine
 10
126.0880310742
 20
144.7523334253
 30
0.0
 11
166.0629794655
 21
144.7523334253
 31
0.0
  0
LINE
  5
26A
330
1F
100
AcDbEntity
  8
0
  6
Continuous
 62
     7
370
    15
100
AcDbLine
 10
164.0880298523
 20
142.7523368228
 30
0.0
 11
128.088031402
 21
142.7523368228
 31
0.0
  0
LINE
  5
26B
330
1F
100
AcDbEntity
  8
0
  6
Continuous
 62
     7
370
    15
100
AcDbLine
 10
276.0880258588
 20
144.7523334253
 30
0.0
 11
316.0880324153
 21
144.7523334253
 31
0.0
  0
LINE
  5
26C
330
1F
100
AcDbEntity
  8
0
  6
Continuous
 62
     7
370
    15
100
AcDbLine
 10
316.0880324153
 20
147.5523361195
 30
0.0
 11
276.0880258588
 21
147.5523361195
 31
0.0
  0
LINE
  5
26D
330
1F
100
AcDbEntity
  8
0
  6
Continuous
 62
     7
370
    15
100
AcDbLine
 10
276.2880292443
 20
147.7523357797
 30
0.0
 11
315.8880290297
 21
147.7523357797
 31
0.0
  0
LINE
  5
26E
330
1F
100
AcDbEntity
  8
0
  6
Continuous
 62
     7
370
    15
100
AcDbLine
 10
314.0880283622
 20
142.7523368228
 30
0.0
 11
278.0880299119
 21
142.7523368228
 31
0.0
  0
LINE
  5
26F
330
1F
100
AcDbEntity
  8
0
  6
Continuous
 62
     7
370
    15
100
AcDbLine
 10
171.0880309997
 20
175.7426546145
 30
0.0
 11
167.5880313573
 21
175.7426546145
 31
0.0
  0
LINE
  5
270
330
1F
100
AcDbEntity
  8
0
  6
Continuous
 62
     7
370
    15
100
AcDbLine
 10
167.5880313573
 20
173.9777666706
 30
0.0
 11
167.5880313573
 21
175.7523347813
 31
0.0
  0
LINE
  5
271
330
1F
100
AcDbEntity
  8
0
  6
Continuous
 62
     7
370
    15
100
AcDbLine
 10
171.0880309997
 20
173.9777666706
 30
0.0
 11
167.5880313573
 21
173.9777666706
 31
0.0
  0
LINE
  5
272
330
1F
100
AcDbEntity
  8
0
  6
Continuous
 62
     7
370
    15
100
AcDbLine
 10
171.0880309997
 20
173.9777666706
 30
0.0
 11
171.0880309997
 21
175.7523347813
 31
0.0
  0
LINE
  5
273
330
1F
100
AcDbEntity
  8
0
  6
Continuous
 62
     7
370
    15
100
AcDbLine
 10
171.0880309997
 20
169.7620158274
 30
0.0
 11
167.5880313573
 21
169.7620158274
 31
0.0
  0
LINE
  5
274
330
1F
100
AcDbEntity
  8
0
  6
Continuous
 62
     7
370
    15
100
AcDbLine
 10
167.5880313573
 20
169.7523356605
 30
0.0
 11
167.5880313573
 21
169.7620158274
 31
0.0
  0
LINE
  5
275
330
1F
100
AcDbEntity
  8
0
  6
Continuous
 62
     7
370
    15
100
AcDbLine
 10
171.0880309997
 20
169.7523356605
 30
0.0
 11
171.0880309997
 21
169.7620158274
 31
0.0
  0
LINE
  5
276
330
1F
100
AcDbEntity
  8
0
  6
Continuous
 62
     7
370
    15
100
AcDbLine
 10
165.1880298463
 20
175.2473716814
 30
0.0
 11
165.1880298463
 21
175.6523349512
 31
0.0
  0
LINE
  5
277
330
1F
100
AcDbEntity
  8
0
  6
Continuous
 62
     7
370
    15
100
AcDbLine
 10
165.1880298463
 20
174.0448740501
 30
0.0
 11
165.1880298463
 21
175.2473716814
 31
0.0
  0
LINE
  5
278
330
1F
100
AcDbEntity
  8
0
  6
Continuous
 62
     7
370
    15
100
AcDbLine
 10
212.5880312828
 20
173.8898926604
 30
0.0
 11
212.5880312828
 21
171.430143081
 31
0.0
  0
LINE
  5
279
330
1F
100
AcDbEntity
  8
0
  6
Continuous
 62
     7
370
    15
100
AcDbLine
 10
212.5880312828
 20
174.0745273608
 30
0.0
 11
212.5880312828
 21
173.8898926604
 31
0.0
  0
LINE
  5
27A
330
1F
100
AcDbEntity
  8
0
  6
Continuous
 62
     7
370
    15
100
AcDbLine
 10
271.0880306271
 20
171.3879150528
 30
0.0
 11
274.5880302695
 21
171.3879150528
 31
0.0
  0
LINE
  5
27B
330
1F
100
AcDbEntity
  8
0
  6
Continuous
 62
     7
370
    15
100
AcDbLine
 10
274.5880302695
 20
174.815215655
 30
0.0
 11
274.5880302695
 21
171.3879150528
 31
0.0
  0
LINE
  5
27C
330
1F
100
AcDbEntity
  8
0
  6
Continuous
 62
     7
370
    15
100
AcDbLine
 10
271.0880306271
 20
174.815215655
 30
0.0
 11
274.5880302695
 21
174.815215655
 31
0.0
  0
LINE
  5
27D
330
1F
100
AcDbEntity
  8
0
  6
Continuous
 62
     7
370
    15
100
AcDbLine
 10
271.0880306271
 20
174.815215655
 30
0.0
 11
271.0880306271
 21
171.3879150528
 31
0.0
  0
LINE
  5
27E
330
1F
100
AcDbEntity
  8
0
  6
Continuous
 62
     7
370
    15
100
AcDbLine
 10
276.9880261926
 20
175.6523349512
 30
0.0
 11
276.9880261926
 21
173.997475319
 31
0.0
  0
LINE
  5
27F
330
1F
100
AcDbEntity
  8
0
  6
Continuous
 62
     7
370
    15
100
AcDbLine
 10
229.5880284814
 20
172.9408041764
 30
0.0
 11
229.5880284814
 21
174.0745273608
 31
0.0
  0
LINE
  5
280
330
1F
100
AcDbEntity
  8
0
  6
Continuous
 62
     7
370
    15
100
AcDbLine
 10
229.5880284814
 20
171.430143081
 30
0.0
 11
229.5880284814
 21
172.9408041764
 31
0.0
  0
LINE
  5
281
330
1F
100
AcDbEntity
  8
0
  6
Continuous
 62
     7
370
    15
100
AcDbLine
 10
316.0880324153
 20
194.9523351694
 30
0.0
 11
276.0880258588
 21
194.9523351694
 31
0.0
  0
LINE
  5
282
330
1F
100
AcDbEntity
  8
0
  6
Continuous
 62
     7
370
    15
100
AcDbLine
 10
276.3880309371
 20
195.2523351837
 30
0.0
 11
315.788027337
 21
195.2523351837
 31
0.0
  0
LINE
  5
283
330
1F
100
AcDbEntity
  8
0
  6
Continuous
 62
     7
370
    15
100
AcDbLine
 10
276.0880258588
 20
148.0523334075
 30
0.0
 11
316.0880324153
 21
148.0523334075
 31
0.0
  0
SPLINE
  5
284
330
1F
100
AcDbEntity
  8
0
  6
Continuous
 62
     7
370
    15
100
AcDbSpline
210
0.0
220
0.0
230
1.0
 70
    11
 71
     3
 72
    50
 73
    46
 74
     0
 42
0.000000001
 43
0.00000001
 40
0.0
 40
0.0
 40
0.0
 40
0.0
 40
0.0238795990327739
 40
0.0485137634850837
 40
0.0723746405318347
 40
0.0968536287656924
 40
0.1220567714999956
 40
0.1480306680647784
 40
0.1724346882134171
 40
0.1976384386220797
 40
0.2206912532930925
 40
0.2443571789130775
 40
0.2685211487343909
 40
0.293318513500748
 40
0.3186121640676286
 40
0.3447471446225757
 40
0.3682178930708462
 40
0.3925110533316001
 40
0.4139410952060894
 40
0.4359576554102506
 40
0.4581896571574349
 40
0.4809012005341333
 40
0.5130391356331817
 40
0.5461023074051393
 40
0.5788688399141121
 40
0.5956807963419446
 40
0.6124863170368575
 40
0.6280166855335593
 40
0.6437740913302512
 40
0.6568210297963052
 40
0.6702127584579399
 40
0.6832805189030051
 40
0.6967901975091562
 40
0.7138963256041752
 40
0.731466185207921
 40
0.7618149010410077
 40
0.7929504900008385
 40
0.825507037483484
 40
0.8588939813439277
 40
0.884608220177288
 40
0.9109857480490706
 40
0.9367393548953828
 40
0.96350144983501
 40
0.9815654131328027
 40
1.0
 40
1.0
 40
1.0
 40
1.0
 10
276.0880258587716
 20
168.6868691075375
 30
0.0
 10
276.1047084762777
 20
168.9827420923403
 30
0.0
 10
276.1386008611076
 20
169.5838372776759
 30
0.0
 10
276.3697632073993
 20
170.834763007109
 30
0.0
 10
276.6703751931258
 20
172.3111938843117
 30
0.0
 10
277.0022751005591
 20
174.0083539381501
 30
0.0
 10
277.3106308683006
 20
175.9292242702259
 30
0.0
 10
277.5282298906614
 20
177.9844627806106
 30
0.0
 10
277.6122973256819
 20
180.1120132627564
 30
0.0
 10
277.5506708220335
 20
182.1632090678011
 30
0.0
 10
277.3648580299048
 20
184.1332745993246
 30
0.0
 10
277.0940715703796
 20
185.9704488543547
 30
0.0
 10
276.7708472239907
 20
187.701245290597
 30
0.0
 10
276.4479368508436
 20
189.2748264603659
 30
0.0
 10
276.1862164056818
 20
190.645071941745
 30
0.0
 10
276.0614467887775
 20
191.7022906470977
 30
0.0
 10
276.1172867446459
 20
192.4304033992868
 30
0.0
 10
276.3599061714983
 20
192.8077366276612
 30
0.0
 10
276.783921651386
 20
192.8894702073298
 30
0.0
 10
277.3581380885972
 20
192.7182946893936
 30
0.0
 10
278.092261660628
 20
192.3098820362751
 30
0.0
 10
279.0797954683621
 20
191.6029052647459
 30
0.0
 10
280.3600560175659
 20
190.5149854169694
 30
0.0
 10
281.9061005597648
 20
189.0029762543749
 30
0.0
 10
283.2419079987456
 20
187.5032628047493
 30
0.0
 10
284.2773613507674
 20
186.1630570177735
 30
0.0
 10
285.0013936123265
 20
185.0939254918219
 30
0.0
 10
285.6409972389527
 20
183.9688454131787
 30
0.0
 10
286.1302246206021
 20
182.8521370482119
 30
0.0
 10
286.4591032769604
 20
181.7207694896799
 30
0.0
 10
286.6098535858902
 20
180.615392689442
 30
0.0
 10
286.5758278563031
 20
179.4841693709118
 30
0.0
 10
286.341013657668
 20
178.2772718944459
 30
0.0
 10
285.880284896146
 20
177.0203564109432
 30
0.0
 10
285.0599145838239
 20
175.4577045737154
 30
0.0
 10
283.8680454434146
 20
173.7559780055851
 30
0.0
 10
282.3568311812396
 20
171.9834721000645
 30
0.0
 10
280.8047009358029
 20
170.4038281833773
 30
0.0
 10
279.4286679029895
 20
169.1812496239932
 30
0.0
 10
278.2877911673771
 20
168.3177354368424
 30
0.0
 10
277.4056256017761
 20
167.7977298467219
 30
0.0
 10
276.7147797479506
 20
167.5907559915786
 30
0.0
 10
276.3139650785197
 20
167.739938404738
 30
0.0
 10
276.1175733051717
 20
168.1235124750086
 30
0.0
 10
276.0979414579307
 20
168.4978166095256
 30
0.0
 10
276.0880258587716
 20
168.6868691075375
 30
0.0
  0
SPLINE
  5
285
330
1F
100
AcDbEntity
  8
0
  6
Continuous
 62
     7
370
    15
100
AcDbSpline
210
0.0
220
0.0
230
1.0
 70
    11
 71
     3
 72
    50
 73
    46
 74
     0
 42
0.000000001
 43
0.00000001
 40
0.0
 40
0.0
 40
0.0
 40
0.0
 40
0.0216304856503955
 40
0.0439028158601108
 40
0.0655340904828778
 40
0.0877723927954492
 40
0.1099036666180721
 40
0.1325638236134807
 40
0.1569753375623201
 40
0.1820431829535443
 40
0.2072439110638664
 40
0.2332805526941547
 40
0.2568159786312958
 40
0.2810553635684089
 40
0.3043631976755433
 40
0.3282603084788515
 40
0.3532250754163355
 40
0.3789143884809676
 40
0.4036810537588618
 40
0.4293334912781532
 40
0.4515978889626985
 40
0.4745696740640415
 40
0.4959779207863897
 40
0.5179031117562667
 40
0.5415600420694358
 40
0.5656926449954015
 40
0.6006614738026267
 40
0.6366396730992893
 40
0.6616420207044046
 40
0.6871053545182558
 40
0.7016657504782291
 40
0.7165104019336911
 40
0.7286964438267431
 40
0.7412297907159815
 40
0.7534199861768297
 40
0.7659188131842111
 40
0.7856573313132394
 40
0.8059109660424394
 40
0.8399791164989432
 40
0.8749844046682258
 40
0.9100011111002588
 40
0.9281536729919619
 40
0.9463010176982645
 40
0.9726947777401286
 40
1.0
 40
1.0
 40
1.0
 40
1.0
 10
315.4529449252008
 20
192.8523350696792
 30
0.0
 10
315.5896534715357
 20
192.8282377369082
 30
0.0
 10
315.8671271368639
 20
192.779328027692
 30
0.0
 10
316.0638655464994
 20
192.3706258979068
 30
0.0
 10
316.1092232117198
 20
191.7104765265624
 30
0.0
 10
316.0104409241818
 20
190.7988133640964
 30
0.0
 10
315.8022991157622
 20
189.6462043757263
 30
0.0
 10
315.5166838638389
 20
188.2477542694087
 30
0.0
 10
315.1917975598002
 20
186.5939706242916
 30
0.0
 10
314.884014800617
 20
184.7061147597756
 30
0.0
 10
314.6563530900892
 20
182.6402071818921
 30
0.0
 10
314.5647767642679
 20
180.5357318500701
 30
0.0
 10
314.61895091462
 20
178.4524533468167
 30
0.0
 10
314.7952813155013
 20
176.4983457099155
 30
0.0
 10
315.0643461567805
 20
174.6402429529101
 30
0.0
 10
315.3840200576662
 20
172.9094330708406
 30
0.0
 10
315.7106153281145
 20
171.3153483462222
 30
0.0
 10
315.9750749528471
 20
169.9453027296761
 30
0.0
 10
316.1126928790951
 20
168.8496035703027
 30
0.0
 10
316.0694980918077
 20
168.1141049804689
 30
0.0
 10
315.8322245207104
 20
167.7101289588159
 30
0.0
 10
315.4273705236337
 20
167.6105761183233
 30
0.0
 10
314.8558716014728
 20
167.7708674115161
 30
0.0
 10
314.1313147255236
 20
168.1636708602342
 30
0.0
 10
313.2439313113288
 20
168.792560298607
 30
0.0
 10
312.0642650464395
 20
169.7705641895394
 30
0.0
 10
310.5828149682954
 20
171.1742449461715
 30
0.0
 10
309.0286224764159
 20
172.8746892958291
 30
0.0
 10
307.6768915536727
 20
174.6225723027827
 30
0.0
 10
306.7530311498224
 20
176.0934072322598
 30
0.0
 10
306.1208957171898
 20
177.455727703691
 30
0.0
 10
305.7672670705401
 20
178.5601964940643
 30
0.0
 10
305.5866306277056
 20
179.6598611172995
 30
0.0
 10
305.5756513251649
 20
180.7046209401396
 30
0.0
 10
305.7254506715688
 20
181.7435070495633
 30
0.0
 10
306.0688412368876
 20
182.9354390296707
 30
0.0
 10
306.6672391700153
 20
184.2492465487882
 30
0.0
 10
307.702269810053
 20
185.9342026559016
 30
0.0
 10
309.1125398330369
 20
187.7365691424685
 30
0.0
 10
310.7939417283981
 20
189.5423584238826
 30
0.0
 10
312.1566716714905
 20
190.8115383491052
 30
0.0
 10
313.1669465586824
 20
191.6445174484821
 30
0.0
 10
313.981772504524
 20
192.2408947856713
 30
0.0
 10
314.8077270402617
 20
192.7388450053882
 30
0.0
 10
315.2354522919522
 20
192.8140793834895
 30
0.0
 10
315.4529449252008
 20
192.8523350696792
 30
0.0
  0
LINE
  5
286
330
1F
100
AcDbEntity
  8
0
  6
Continuous
 62
     7
370
    15
100
AcDbLine
 10
166.0880301801
 20
194.9523351694
 30
0.0
 11
126.0880310742
 21
194.9523351694
 31
0.0
  0
LINE
  5
287
330
1F
100
AcDbEntity
  8
0
  6
Continuous
 62
     7
370
    15
100
AcDbLine
 10
126.0880310742
 20
148.0523334075
 30
0.0
 11
166.0880301801
 21
148.0523334075
 31
0.0
  0
SPLINE
  5
288
330
1F
100
AcDbEntity
  8
0
  6
Continuous
 62
     7
370
    15
100
AcDbSpline
210
0.0
220
0.0
230
1.0
 70
    11
 71
     3
 72
   108
 73
   104
 74
     0
 42
0.000000001
 43
0.00000001
 40
0.0
 40
0.0
 40
0.0
 40
0.0
 40
0.03125
 40
0.03125
 40
0.0468750000000001
 40
0.0468750000000001
 40
0.0625000000000001
 40
0.0625000000000001
 40
0.0937500000000002
 40
0.0937500000000002
 40
0.1093750000000002
 40
0.1093750000000002
 40
0.1250000000000002
 40
0.1250000000000002
 40
0.1406250000000003
 40
0.1406250000000003
 40
0.1562500000000003
 40
0.1562500000000003
 40
0.1875000000000002
 40
0.1875000000000002
 40
0.2031250000000001
 40
0.2031250000000001
 40
0.2187500000000001
 40
0.2187500000000001
 40
0.234375
 40
0.234375
 40
0.25
 40
0.25
 40
0.2812499999999999
 40
0.2812499999999999
 40
0.2968749999999999
 40
0.2968749999999999
 40
0.3124999999999998
 40
0.3124999999999998
 40
0.3437499999999997
 40
0.3437499999999997
 40
0.3593749999999997
 40
0.3593749999999997
 40
0.3749999999999997
 40
0.3749999999999997
 40
0.3906249999999996
 40
0.3906249999999996
 40
0.4062499999999996
 40
0.4062499999999996
 40
0.4218749999999996
 40
0.4218749999999996
 40
0.4374999999999995
 40
0.4374999999999995
 40
0.4687499999999995
 40
0.4687499999999995
 40
0.4843749999999995
 40
0.4843749999999995
 40
0.4999999999999994
 40
0.4999999999999994
 40
0.5312499999999994
 40
0.5312499999999994
 40
0.5624999999999994
 40
0.5624999999999994
 40
0.5937499999999996
 40
0.5937499999999996
 40
0.6093749999999996
 40
0.6093749999999996
 40
0.6249999999999996
 40
0.6249999999999996
 40
0.6406249999999996
 40
0.6406249999999996
 40
0.6562499999999996
 40
0.6562499999999996
 40
0.6640624999999996
 40
0.6640624999999996
 40
0.6718749999999996
 40
0.6718749999999996
 40
0.6874999999999997
 40
0.6874999999999997
 40
0.7031249999999998
 40
0.7031249999999998
 40
0.7187499999999998
 40
0.7187499999999998
 40
0.7343749999999998
 40
0.7343749999999998
 40
0.7499999999999998
 40
0.7499999999999998
 40
0.7812499999999998
 40
0.7812499999999998
 40
0.7968749999999998
 40
0.7968749999999998
 40
0.8124999999999998
 40
0.8124999999999998
 40
0.8437499999999999
 40
0.8437499999999999
 40
0.8749999999999999
 40
0.8749999999999999
 40
0.9062499999999999
 40
0.9062499999999999
 40
0.9218749999999999
 40
0.9218749999999999
 40
0.9374999999999999
 40
0.9374999999999999
 40
0.953125
 40
0.953125
 40
0.96875
 40
0.96875
 40
1.0
 40
1.0
 40
1.0
 40
1.0
 10
126.0880306271432
 20
168.6868693478324
 30
0.0
 10
126.0880306271432
 20
169.0400815777607
 30
0.0
 10
126.1376264221499
 20
169.4713161195791
 30
0.0
 10
126.2608754420478
 20
170.2294982226647
 30
0.0
 10
126.3101848787951
 20
170.5009518654266
 30
0.0
 10
126.4215248865909
 20
171.0824008177271
 30
0.0
 10
126.482962590974
 20
171.3893420117352
 30
0.0
 10
126.6759546919102
 20
172.348706507315
 30
0.0
 10
126.8169019570862
 20
173.0428450023262
 30
0.0
 10
127.0216005216871
 20
174.1705214859247
 30
0.0
 10
127.0882938511918
 20
174.558994178338
 30
0.0
 10
127.2125930334414
 20
175.3486180669075
 30
0.0
 10
127.2705352986148
 20
175.7515639305264
 30
0.0
 10
127.3745811369789
 20
176.5740678444254
 30
0.0
 10
127.4206878851696
 20
176.9936246552274
 30
0.0
 10
127.4978365885145
 20
177.8502277806312
 30
0.0
 10
127.5288792038975
 20
178.2893558025834
 30
0.0
 10
127.5936648942532
 20
179.6006132251634
 30
0.0
 10
127.5999285380413
 20
180.4758653748281
 30
0.0
 10
127.5529588117121
 20
181.7903637744344
 30
0.0
 10
127.5277216969626
 20
182.2315950379794
 30
0.0
 10
127.4608137213803
 20
183.0973888671849
 30
0.0
 10
127.4192905375196
 20
183.5222560768892
 30
0.0
 10
127.323123668875
 20
184.3567143136252
 30
0.0
 10
127.2684775203305
 20
184.7663043188392
 30
0.0
 10
127.149317708138
 20
185.5705119700836
 30
0.0
 10
127.0844154635649
 20
185.9672173781461
 30
0.0
 10
126.8839076039525
 20
187.1146451964976
 30
0.0
 10
126.7424756586378
 20
187.8252064219848
 30
0.0
 10
126.5436977826577
 20
188.8136425823922
 30
0.0
 10
126.4793538582732
 20
189.1317093841699
 30
0.0
 10
126.361321619729
 20
189.73284302064
 30
0.0
 10
126.3078611785407
 20
190.0147556486893
 30
0.0
 10
126.1698768144166
 20
190.8061100040374
 30
0.0
 10
126.1074175526715
 20
191.2618421206922
 30
0.0
 10
126.0839994936188
 20
191.8320081043958
 30
0.0
 10
126.0882119155243
 20
191.999751512166
 30
0.0
 10
126.1228633897427
 20
192.2894914592941
 30
0.0
 10
126.1532717336986
 20
192.4120111774299
 30
0.0
 10
126.2425478727719
 20
192.6130788879978
 30
0.0
 10
126.3014080549922
 20
192.6916270339954
 30
0.0
 10
126.4503308314896
 20
192.804131260151
 30
0.0
 10
126.5396739427335
 20
192.837218338687
 30
0.0
 10
126.7454145799077
 20
192.8591636292011
 30
0.0
 10
126.8621426951052
 20
192.8482818823261
 30
0.0
 10
127.123128894378
 20
192.7851239366997
 30
0.0
 10
127.2678324744303
 20
192.7326331459589
 30
0.0
 10
127.740613934268
 20
192.5159876609086
 30
0.0
 10
128.0999182885165
 20
192.2970522129672
 30
0.0
 10
128.6963930688036
 20
191.8736752675804
 30
0.0
 10
128.9057808367472
 20
191.7158043139724
 30
0.0
 10
129.3381597860611
 20
191.3728799077346
 30
0.0
 10
129.5603466463629
 20
191.1885508297224
 30
0.0
 10
130.2424562105954
 20
190.5999616629616
 30
0.0
 10
130.7179712359599
 20
190.160534197128
 30
0.0
 10
131.6982724944185
 20
189.1918017001681
 30
0.0
 10
132.2058660609614
 20
188.6592483932646
 30
0.0
 10
133.2053311814977
 20
187.5272679480428
 30
0.0
 10
133.7007216111164
 20
186.925502632118
 30
0.0
 10
134.4145631197777
 20
185.9534691261245
 30
0.0
 10
134.6475078019051
 20
185.6177330537426
 30
0.0
 10
135.0965112465713
 20
184.9167423020403
 30
0.0
 10
135.3115930777972
 20
184.5527557532656
 30
0.0
 10
135.7065798091818
 20
183.8017568902764
 30
0.0
 10
135.8874608390751
 20
183.4134427117043
 30
0.0
 10
136.2004580186805
 20
182.6023992658027
 30
0.0
 10
136.3307988833735
 20
182.1823498278691
 30
0.0
 10
136.4702995759473
 20
181.5413691223347
 30
0.0
 10
136.5077171749882
 20
181.3252295048715
 30
0.0
 10
136.5624132744697
 20
180.8875143542525
 30
0.0
 10
136.5797012273202
 20
180.6645479853241
 30
0.0
 10
136.5983191540295
 20
179.997476258323
 30
0.0
 10
136.5667749143526
 20
179.5590223465496
 30
0.0
 10
136.4246780037878
 20
178.693464288652
 30
0.0
 10
136.3125590126183
 20
178.2626111026446
 30
0.0
 10
136.0328615281562
 20
177.4400578288161
 30
0.0
 10
135.8656159689478
 20
177.0453445735973
 30
0.0
 10
135.4928507872825
 20
176.2808231122594
 30
0.0
 10
135.286242190388
 20
175.9094352209769
 30
0.0
 10
134.8508243831859
 20
175.1944502913927
 30
0.0
 10
134.6230539934364
 20
174.8521722922294
 30
0.0
 10
133.9212413770556
 20
173.8610425429882
 30
0.0
 10
133.4292918343326
 20
173.2472166493112
 30
0.0
 10
132.6805835716158
 20
172.3794070792365
 30
0.0
 10
132.4281425098494
 20
172.0982567204683
 30
0.0
 10
131.9264869645688
 20
171.5581133345274
 30
0.0
 10
131.6776366968857
 20
171.2994386319799
 30
0.0
 10
130.9399422868392
 20
170.5560789484282
 30
0.0
 10
130.4599752651069
 20
170.103625190755
 30
0.0
 10
129.5364418766194
 20
169.2884599335009
 30
0.0
 10
129.090204563379
 20
168.9242834145118
 30
0.0
 10
128.2772076705585
 20
168.324892116232
 30
0.0
 10
127.9066174984511
 20
168.0858524659366
 30
0.0
 10
127.413386408064
 20
167.8342720124551
 30
0.0
 10
127.2598835454147
 20
167.7688467424816
 30
0.0
 10
126.9827485108658
 20
167.6798881217959
 30
0.0
 10
126.8579884617674
 20
167.6557302215016
 30
0.0
 10
126.635954501764
 20
167.6496047028821
 30
0.0
 10
126.5386804418008
 20
167.6676280861887
 30
0.0
 10
126.3718462675473
 20
167.748730688166
 30
0.0
 10
126.3019563111468
 20
167.8125271691019
 30
0.0
 10
126.1378681434927
 20
168.0721591529116
 30
0.0
 10
126.0880306271432
 20
168.333657117904
 30
0.0
 10
126.0880306271432
 20
168.6868693478324
 30
0.0
  0
SPLINE
  5
289
330
1F
100
AcDbEntity
  8
0
  6
Continuous
 62
     7
370
    15
100
AcDbSpline
210
0.0
220
0.0
230
1.0
 70
    11
 71
     3
 72
   104
 73
   100
 74
     0
 42
0.000000001
 43
0.00000001
 40
0.0
 40
0.0
 40
0.0
 40
0.0
 40
0.03125
 40
0.03125
 40
0.046875
 40
0.046875
 40
0.0624999999999999
 40
0.0624999999999999
 40
0.0781249999999999
 40
0.0781249999999999
 40
0.0937499999999999
 40
0.0937499999999999
 40
0.1249999999999999
 40
0.1249999999999999
 40
0.1406249999999999
 40
0.1406249999999999
 40
0.1562499999999999
 40
0.1562499999999999
 40
0.1718749999999999
 40
0.1718749999999999
 40
0.1874999999999999
 40
0.1874999999999999
 40
0.21875
 40
0.21875
 40
0.2343750000000001
 40
0.2343750000000001
 40
0.2500000000000001
 40
0.2500000000000001
 40
0.2812500000000002
 40
0.2812500000000002
 40
0.3125000000000004
 40
0.3125000000000004
 40
0.3437500000000006
 40
0.3437500000000006
 40
0.3750000000000008
 40
0.3750000000000008
 40
0.3906250000000008
 40
0.3906250000000008
 40
0.4062500000000009
 40
0.4062500000000009
 40
0.4218750000000009
 40
0.4218750000000009
 40
0.4375000000000009
 40
0.4375000000000009
 40
0.4687500000000011
 40
0.4687500000000011
 40
0.4843750000000011
 40
0.4843750000000011
 40
0.5000000000000011
 40
0.5000000000000011
 40
0.5156250000000011
 40
0.5156250000000011
 40
0.5312500000000011
 40
0.5312500000000011
 40
0.5625000000000011
 40
0.5625000000000011
 40
0.5781250000000012
 40
0.5781250000000012
 40
0.5937500000000012
 40
0.5937500000000012
 40
0.6250000000000014
 40
0.6250000000000014
 40
0.6406250000000016
 40
0.6406250000000016
 40
0.6562500000000016
 40
0.6562500000000016
 40
0.6875000000000017
 40
0.6875000000000017
 40
0.7031250000000017
 40
0.7031250000000017
 40
0.7109375000000017
 40
0.7109375000000017
 40
0.7187500000000017
 40
0.7187500000000017
 40
0.7343750000000017
 40
0.7343750000000017
 40
0.7500000000000016
 40
0.7500000000000016
 40
0.7656250000000014
 40
0.7656250000000014
 40
0.7812500000000013
 40
0.7812500000000013
 40
0.7968750000000012
 40
0.7968750000000012
 40
0.8125000000000011
 40
0.8125000000000011
 40
0.843750000000001
 40
0.843750000000001
 40
0.8750000000000008
 40
0.8750000000000008
 40
0.9062500000000007
 40
0.9062500000000007
 40
0.9375000000000006
 40
0.9375000000000006
 40
0.9531250000000003
 40
0.9531250000000003
 40
0.9687500000000002
 40
0.9687500000000002
 40
1.0
 40
1.0
 40
1.0
 40
1.0
 10
165.4529473581803
 20
192.8523351836732
 30
0.0
 10
165.6753565668522
 20
192.8523351836731
 30
0.0
 10
165.836011257487
 20
192.7648683128129
 30
0.0
 10
165.9926076437854
 20
192.4973376433622
 30
0.0
 10
166.0308076093657
 20
192.3844730110271
 30
0.0
 10
166.0792798931943
 20
192.1138395252121
 30
0.0
 10
166.0895741790007
 20
191.9573393628316
 30
0.0
 10
166.0861162371845
 20
191.6030356365379
 30
0.0
 10
166.0723528697243
 20
191.4052300941639
 30
0.0
 10
166.0241067387346
 20
190.9679794516496
 30
0.0
 10
165.9893214374808
 20
190.7269355981797
 30
0.0
 10
165.861393904631
 20
189.9545145951588
 30
0.0
 10
165.745168743243
 20
189.373855791296
 30
0.0
 10
165.5500482377232
 20
188.4044098439103
 30
0.0
 10
165.481236166025
 20
188.063278973871
 30
0.0
 10
165.3436465127799
 20
187.3611122334115
 30
0.0
 10
165.2745881860278
 20
186.9987273402556
 30
0.0
 10
165.1400433330789
 20
186.2512073304048
 30
0.0
 10
165.0745490513793
 20
185.8660731137629
 30
0.0
 10
164.9510942698033
 20
185.072076857779
 30
0.0
 10
164.8928358114534
 20
184.6605869272771
 30
0.0
 10
164.7382868968502
 20
183.4123556867286
 30
0.0
 10
164.6619578218745
 20
182.5612481026628
 30
0.0
 10
164.6010915567626
 20
181.2552860549385
 30
0.0
 10
164.58968551954
 20
180.813893592509
 30
0.0
 10
164.5862847793024
 20
179.9256337405611
 30
0.0
 10
164.5942660321296
 20
179.4854325002257
 30
0.0
 10
164.6454154406167
 20
178.1761248259137
 30
0.0
 10
164.7160777972379
 20
177.3178428506157
 30
0.0
 10
164.9146109124948
 20
175.6324736494788
 30
0.0
 10
165.0386537937403
 20
174.8344303710648
 30
0.0
 10
165.3056748136018
 20
173.3196073166841
 30
0.0
 10
165.449892761011
 20
172.5979572055662
 30
0.0
 10
165.7126219733605
 20
171.2924114790878
 30
0.0
 10
165.8324946954119
 20
170.7012119932428
 30
0.0
 10
165.9689229193752
 20
169.9084819872018
 30
0.0
 10
166.0068064315046
 20
169.6613163054078
 30
0.0
 10
166.0620315152467
 20
169.2115044795621
 30
0.0
 10
166.0796874995846
 20
169.007159793236
 30
0.0
 10
166.0917476472634
 20
168.6391794204706
 30
0.0
 10
166.0861626856358
 20
168.4755422874813
 30
0.0
 10
166.0479697167358
 20
168.1899294675114
 30
0.0
 10
166.0149355274023
 20
168.0676906793948
 30
0.0
 10
165.8736902463759
 20
167.7741678623817
 30
0.0
 10
165.7236391053316
 20
167.6709537028888
 30
0.0
 10
165.4080894224916
 20
167.6464476892284
 30
0.0
 10
165.2873577685057
 20
167.6605453082194
 30
0.0
 10
165.0217590604674
 20
167.7299200295467
 30
0.0
 10
164.8762739793895
 20
167.7850339077019
 30
0.0
 10
164.5609447585681
 20
167.9331961196602
 30
0.0
 10
164.3910978603213
 20
168.0262534597474
 30
0.0
 10
164.0276935727367
 20
168.2486678391097
 30
0.0
 10
163.8353991143178
 20
168.377320464637
 30
0.0
 10
163.2354431840407
 20
168.8071285511928
 30
0.0
 10
162.8023324896922
 20
169.153135717739
 30
0.0
 10
162.1111681002226
 20
169.7526233167132
 30
0.0
 10
161.8747900836659
 20
169.9652257332288
 30
0.0
 10
161.3971669763975
 20
170.409801033255
 30
0.0
 10
161.1551131456045
 20
170.6424668550503
 30
0.0
 10
160.4217165782118
 20
171.3708465555351
 30
0.0
 10
159.9228777190212
 20
171.8963995725387
 30
0.0
 10
159.1724504208125
 20
172.7504399523898
 30
0.0
 10
158.9211511744544
 20
173.0472504988069
 30
0.0
 10
158.4255905983649
 20
173.6605178872488
 30
0.0
 10
158.1817867083473
 20
173.9762815143602
 30
0.0
 10
157.4693107566517
 20
174.955325673123
 30
0.0
 10
157.0170487757946
 20
175.6492183000911
 30
0.0
 10
156.428002973707
 20
176.789144797329
 30
0.0
 10
156.2503281712019
 20
177.1799046804687
 30
0.0
 10
156.0228825813572
 20
177.7869206946541
 30
0.0
 10
155.9536176046325
 20
177.9927581098781
 30
0.0
 10
155.8305729981047
 20
178.4124895082147
 30
0.0
 10
155.7765827826611
 20
178.6275585465946
 30
0.0
 10
155.6439405561464
 20
179.2766479920239
 30
0.0
 10
155.5944938014302
 20
179.7136621454915
 30
0.0
 10
155.581897627918
 20
180.5970532119128
 30
0.0
 10
155.6202384335166
 20
181.0456231265945
 30
0.0
 10
155.7746256327988
 20
181.9108385641854
 30
0.0
 10
155.890000882996
 20
182.3330906816469
 30
0.0
 10
156.1809443317229
 20
183.1591904180247
 30
0.0
 10
156.3525477349482
 20
183.5528987254518
 30
0.0
 10
156.7307516603883
 20
184.3121590158909
 30
0.0
 10
156.9374586910274
 20
184.6776367328954
 30
0.0
 10
157.3749722622996
 20
185.386659752633
 30
0.0
 10
157.6067516780923
 20
185.7313268354055
 30
0.0
 10
158.3159229861679
 20
186.7228691762251
 30
0.0
 10
158.8089448250234
 20
187.3329059280492
 30
0.0
 10
159.8025710929569
 20
188.4773859410581
 30
0.0
 10
160.304040240795
 20
189.0116565434813
 30
0.0
 10
161.2967063283617
 20
190.0070663730137
 30
0.0
 10
161.776224266396
 20
190.4563222999203
 30
0.0
 10
162.6900183088899
 20
191.2582178020793
 30
0.0
 10
163.1244594318268
 20
191.610929667046
 30
0.0
 10
163.7332005406872
 20
192.0564548196596
 30
0.0
 10
163.9299512239064
 20
192.1914791803836
 30
0.0
 10
164.298871481229
 20
192.4247297599336
 30
0.0
 10
164.4718191802939
 20
192.5236322921703
 30
0.0
 10
164.9551011202068
 20
192.7647986222112
 30
0.0
 10
165.2305381495084
 20
192.8523351836731
 30
0.0
 10
165.4529473581803
 20
192.8523351836731
 30
0.0
  0
LINE
  5
28A
330
1F
100
AcDbEntity
  8
0
  6
Continuous
 62
     7
370
    15
100
AcDbLine
 10
126.3880305646
 20
195.2523351837
 30
0.0
 11
165.7880306897
 21
195.2523351837
 31
0.0
  0
LINE
  5
28B
330
1F
100
AcDbEntity
  8
0
  6
Continuous
 62
     8
370
    15
100
AcDbLine
 10
196.3115972189
 20
162.4136069048
 30
0.0
 11
196.3115972189
 21
164.2023348439
 31
0.0
  0
LINE
  5
28C
330
1F
100
AcDbEntity
  8
0
  6
Continuous
 62
     8
370
    15
100
AcDbLine
 10
196.3115972189
 20
152.3023345697
 30
0.0
 11
196.3115972189
 21
162.4136069048
 31
0.0
  0
LINE
  5
28D
330
1F
100
AcDbEntity
  8
0
  6
Continuous
 62
     8
370
    15
100
AcDbLine
 10
245.8644625453
 20
152.886273824
 30
0.0
 11
245.8644625453
 21
152.3023345697
 31
0.0
  0
LINE
  5
28E
330
1F
100
AcDbEntity
  8
0
  6
Continuous
 62
     8
370
    15
100
AcDbLine
 10
245.8644625453
 20
164.2023348439
 30
0.0
 11
245.8644625453
 21
152.886273824
 31
0.0
  0
LINE
  5
28F
330
1F
100
AcDbEntity
  8
0
  6
Continuous
 62
     8
370
    15
100
AcDbLine
 10
165.2880315391
 20
175.3334072608
 30
0.0
 11
165.2880315391
 21
173.4698401022
 31
0.0
  0
LINE
  5
290
330
1F
100
AcDbEntity
  8
0
  6
Continuous
 62
     8
370
    15
100
AcDbLine
 10
165.2880315391
 20
175.7523347813
 30
0.0
 11
165.2880315391
 21
175.3334072608
 31
0.0
  0
LINE
  5
291
330
1F
100
AcDbEntity
  8
0
  6
Continuous
 62
     8
370
    15
100
AcDbLine
 10
189.1797040311
 20
175.3334072608
 30
0.0
 11
189.1797040311
 21
175.7523347813
 31
0.0
  0
LINE
  5
292
330
1F
100
AcDbEntity
  8
0
  6
Continuous
 62
     8
370
    15
100
AcDbLine
 10
189.1797040311
 20
169.7523356605
 30
0.0
 11
189.1797040311
 21
175.3334072608
 31
0.0
  0
LINE
  5
293
330
1F
100
AcDbEntity
  8
0
  6
Continuous
 62
     8
370
    15
100
AcDbLine
 10
191.7550977973
 20
175.0380494822
 30
0.0
 11
191.7550977973
 21
170.4666209597
 31
0.0
  0
LINE
  5
294
330
1F
100
AcDbEntity
  8
0
  6
Continuous
 62
     8
370
    15
100
AcDbLine
 10
205.0725784806
 20
175.565993898
 30
0.0
 11
205.0725784806
 21
169.9386765439
 31
0.0
  0
LINE
  5
295
330
1F
100
AcDbEntity
  8
0
  6
Continuous
 62
     8
370
    15
100
AcDbLine
 10
202.2650097219
 20
174.6411998946
 30
0.0
 11
202.2650097219
 21
174.9477782476
 31
0.0
  0
LINE
  5
296
330
1F
100
AcDbEntity
  8
0
  6
Continuous
 62
     8
370
    15
100
AcDbLine
 10
202.2650097219
 20
170.5568921942
 30
0.0
 11
202.2650097219
 21
174.6411998946
 31
0.0
  0
LINE
  5
297
330
1F
100
AcDbEntity
  8
0
  6
Continuous
 62
     8
370
    15
100
AcDbLine
 10
211.6628181843
 20
174.7478400547
 30
0.0
 11
211.6628181843
 21
175.0717261065
 31
0.0
  0
LINE
  5
298
330
1F
100
AcDbEntity
  8
0
  6
Continuous
 62
     8
370
    15
100
AcDbLine
 10
211.6628181843
 20
170.4329443354
 30
0.0
 11
211.6628181843
 21
174.7478400547
 31
0.0
  0
LINE
  5
299
330
1F
100
AcDbEntity
  8
0
  6
Continuous
 62
     8
370
    15
100
AcDbLine
 10
194.5880320577
 20
174.0428717065
 30
0.0
 11
194.5880320577
 21
174.2523354668
 31
0.0
  0
LINE
  5
29A
330
1F
100
AcDbEntity
  8
0
  6
Continuous
 62
     8
370
    15
100
AcDbLine
 10
194.5880320577
 20
171.2523349751
 30
0.0
 11
194.5880320577
 21
174.0428717065
 31
0.0
  0
LINE
  5
29B
330
1F
100
AcDbEntity
  8
0
  6
Continuous
 62
     8
370
    15
100
AcDbLine
 10
199.5880310146
 20
174.0428717065
 30
0.0
 11
199.5880310146
 21
174.2523354668
 31
0.0
  0
LINE
  5
29C
330
1F
100
AcDbEntity
  8
0
  6
Continuous
 62
     8
370
    15
100
AcDbLine
 10
199.5880310146
 20
171.2523349751
 30
0.0
 11
199.5880310146
 21
174.0428717065
 31
0.0
  0
LINE
  5
29D
330
1F
100
AcDbEntity
  8
0
  6
Continuous
 62
     8
370
    15
100
AcDbLine
 10
276.8880244998
 20
173.4782220054
 30
0.0
 11
276.8880244998
 21
175.7523347813
 31
0.0
  0
LINE
  5
29E
330
1F
100
AcDbEntity
  8
0
  6
Continuous
 62
     8
370
    15
100
AcDbLine
 10
252.9963594583
 20
173.1799640883
 30
0.0
 11
252.9963594583
 21
169.7523356605
 31
0.0
  0
LINE
  5
29F
330
1F
100
AcDbEntity
  8
0
  6
Continuous
 62
     8
370
    15
100
AcDbLine
 10
252.9963594583
 20
175.7523347813
 30
0.0
 11
252.9963594583
 21
173.1799640883
 31
0.0
  0
LINE
  5
2A0
330
1F
100
AcDbEntity
  8
0
  6
Continuous
 62
     8
370
    15
100
AcDbLine
 10
250.4209619669
 20
170.4666209597
 30
0.0
 11
250.4209619669
 21
175.0380494822
 31
0.0
  0
LINE
  5
2A1
330
1F
100
AcDbEntity
  8
0
  6
Continuous
 62
     8
370
    15
100
AcDbLine
 10
237.1034812836
 20
169.9386765439
 30
0.0
 11
237.1034812836
 21
175.565993898
 31
0.0
  0
LINE
  5
2A2
330
1F
100
AcDbEntity
  8
0
  6
Continuous
 62
     8
370
    15
100
AcDbLine
 10
239.9110537676
 20
173.0652791638
 30
0.0
 11
239.9110537676
 21
170.5568921942
 31
0.0
  0
LINE
  5
2A3
330
1F
100
AcDbEntity
  8
0
  6
Continuous
 62
     8
370
    15
100
AcDbLine
 10
239.9110537676
 20
174.9477782476
 30
0.0
 11
239.9110537676
 21
173.0652791638
 31
0.0
  0
LINE
  5
2A4
330
1F
100
AcDbEntity
  8
0
  6
Continuous
 62
     8
370
    15
100
AcDbLine
 10
230.5132415799
 20
173.0829482157
 30
0.0
 11
230.5132415799
 21
170.4329443354
 31
0.0
  0
LINE
  5
2A5
330
1F
100
AcDbEntity
  8
0
  6
Continuous
 62
     8
370
    15
100
AcDbLine
 10
230.5132415799
 20
175.0717261065
 30
0.0
 11
230.5132415799
 21
173.0829482157
 31
0.0
  0
LINE
  5
2A6
330
1F
100
AcDbEntity
  8
0
  6
Continuous
 62
     8
370
    15
100
AcDbLine
 10
247.5880277065
 20
172.9661491889
 30
0.0
 11
247.5880277065
 21
171.2523349751
 31
0.0
  0
LINE
  5
2A7
330
1F
100
AcDbEntity
  8
0
  6
Continuous
 62
     8
370
    15
100
AcDbLine
 10
247.5880277065
 20
174.2523354668
 30
0.0
 11
247.5880277065
 21
172.9661491889
 31
0.0
  0
LINE
  5
2A8
330
1F
100
AcDbEntity
  8
0
  6
Continuous
 62
     8
370
    15
100
AcDbLine
 10
242.5880324749
 20
172.9661491889
 30
0.0
 11
242.5880324749
 21
171.2523349751
 31
0.0
  0
LINE
  5
2A9
330
1F
100
AcDbEntity
  8
0
  6
Continuous
 62
     8
370
    15
100
AcDbLine
 10
242.5880324749
 20
174.2523354668
 30
0.0
 11
242.5880324749
 21
172.9661491889
 31
0.0
  0
LINE
  5
2AA
330
1F
100
AcDbEntity
  8
0
  6
Continuous
 62
     7
370
    15
100
AcDbLine
 10
45.0157033755
 20
83.2996192372
 30
0.0
 11
45.1571007839
 21
83.3812727636
 31
0.0
  0
LINE
  5
2AB
330
1F
100
AcDbEntity
  8
0
  6
Continuous
 62
     7
370
    15
100
AcDbLine
 10
51.4493289215
 20
94.2809117972
 30
0.0
 11
51.4493302386
 21
94.4441939026
 31
0.0
  0
LINE
  5
2AC
330
1F
100
AcDbEntity
  8
0
  6
Continuous
 62
     7
370
    15
100
AcDbLine
 10
36.8587814388
 20
84.9303319316
 30
0.0
 11
40.4650264823
 21
82.8484909812
 31
0.0
  0
LINE
  5
2AD
330
1F
100
AcDbEntity
  8
0
  6
Continuous
 62
     7
370
    15
100
AcDbLine
 10
49.5642887314
 20
98.6105813702
 30
0.0
 11
45.9580436879
 21
100.6924223206
 31
0.0
  0
LINE
  5
2AE
330
1F
100
AcDbEntity
  8
0
  6
Continuous
 62
     7
370
    15
100
AcDbLine
 10
41.4073667947
 20
100.2412946766
 30
0.0
 11
41.2659693863
 21
100.159640871
 31
0.0
  0
LINE
  5
2AF
330
1F
100
AcDbEntity
  8
0
  6
Continuous
 62
     7
370
    15
100
AcDbLine
 10
34.9737425657
 20
89.2600028353
 30
0.0
 11
34.9737399316
 21
89.0967199696
 31
0.0
  0
LINE
  5
2B0
330
1F
100
AcDbEntity
  8
0
  6
Continuous
 62
     7
370
    15
100
AcDbLine
 10
108.8330718618
 20
46.6219196098
 30
0.0
 11
108.8330718618
 21
46.4586352235
 31
0.0
  0
LINE
  5
2B1
330
1F
100
AcDbEntity
  8
0
  6
Continuous
 62
     7
370
    15
100
AcDbLine
 10
41.3606707207
 20
85.968654914
 30
0.0
 11
59.6468567126
 21
75.41226444
 31
0.0
  0
LINE
  5
2B2
330
1F
100
AcDbEntity
  8
0
  6
Continuous
 62
     7
370
    15
100
AcDbLine
 10
65.596374337
 20
85.7182468149
 30
0.0
 11
47.3848132917
 21
96.2315572242
 31
0.0
  0
LINE
  5
2B3
330
1F
100
AcDbEntity
  8
0
  6
Continuous
 62
     7
370
    15
100
AcDbLine
 10
112.8280768017
 20
58.4519653611
 30
0.0
 11
100.6355414366
 21
65.4905662066
 31
0.0
  0
LINE
  5
2B4
330
1F
100
AcDbEntity
  8
0
  6
Continuous
 62
     7
370
    15
100
AcDbLine
 10
94.6860238121
 20
55.1845838317
 30
0.0
 11
108.8419332367
 21
47.0125512675
 31
0.0
  0
SPLINE
  5
2B5
330
1F
100
AcDbEntity
  8
0
  6
Continuous
 62
     7
370
    15
100
AcDbSpline
210
0.0
220
0.0
230
1.0
 70
     8
 71
     3
 72
    15
 73
    11
 74
     0
 42
0.000000001
 43
0.00000001
 40
0.0
 40
0.0
 40
0.0
 40
0.0
 40
0.0555942705926448
 40
0.1913196109253296
 40
0.3274779210617686
 40
0.4635015918306973
 40
0.5993340249688767
 40
0.7350421307398659
 40
0.8707337683863555
 40
1.0
 40
1.0
 40
1.0
 40
1.0
 10
98.19701961212134
 20
65.52456978223628
 30
0.0
 10
98.09727574478035
 20
65.490197193134
 30
0.0
 10
97.75402170639761
 20
65.37190891803942
 30
0.0
 10
97.1605436437415
 20
65.01089362008994
 30
0.0
 10
96.44012031010449
 20
64.45922075884386
 30
0.0
 10
95.7549844331592
 20
63.7774739508212
 30
0.0
 10
95.1252100216538
 20
62.99861463521728
 30
0.0
 10
94.57103174282896
 20
62.14243962669635
 30
0.0
 10
94.10569275124298
 20
61.24894302128491
 30
0.0
 10
93.8822453840279
 20
60.64203372554473
 30
0.0
 10
93.77323107467922
 20
60.345938056408
 30
0.0
  0
SPLINE
  5
2B6
330
1F
100
AcDbEntity
  8
0
  6
Continuous
 62
     7
370
    15
100
AcDbSpline
210
0.0
220
0.0
230
1.0
 70
     8
 71
     3
 72
    11
 73
     7
 74
     0
 42
0.000000001
 43
0.00000001
 40
0.0
 40
0.0
 40
0.0
 40
0.0
 40
0.1554245417459869
 40
0.4508433753190441
 40
0.7472626799251898
 40
1.0
 40
1.0
 40
1.0
 40
1.0
 10
93.77323107467922
 20
60.345938056408
 30
0.0
 10
93.72151111336579
 20
60.18215382302889
 30
0.0
 10
93.57148588782562
 20
59.70706130693606
 30
0.0
 10
93.41523762317544
 20
58.92957105587293
 30
0.0
 10
93.33958869704892
 20
58.08184201201774
 30
0.0
 10
93.39336897311334
 20
57.58555469275983
 30
0.0
 10
93.41812016837264
 20
57.35714931364007
 30
0.0
  0
SPLINE
  5
2B7
330
1F
100
AcDbEntity
  8
0
  6
Continuous
 62
     7
370
    15
100
AcDbSpline
210
0.0
220
0.0
230
1.0
 70
     8
 71
     3
 72
     9
 73
     5
 74
     0
 42
0.000000001
 43
0.00000001
 40
0.0
 40
0.0
 40
0.0
 40
0.0
 40
0.9286411477878468
 40
1.0
 40
1.0
 40
1.0
 40
1.0
 10
47.08819167441643
 20
96.34185745951717
 30
0.0
 10
47.25424663139183
 20
96.30441280552549
 30
0.0
 10
47.4330616207674
 20
96.2640908209991
 30
0.0
 10
47.57176752211312
 20
96.15413733199087
 30
0.0
 10
47.58166541602819
 20
96.14629117721852
 30
0.0
  0
LINE
  5
2B8
330
1F
100
AcDbEntity
  8
0
  6
Continuous
 62
     7
370
    15
100
AcDbLine
 10
66.7477603839
 20
83.9566305572
 30
0.0
 11
64.9799924826
 21
84.9771412444
 31
0.0
  0
LINE
  5
2B9
330
1F
100
AcDbEntity
  8
0
  6
Continuous
 62
     7
370
    15
100
AcDbLine
 10
59.9803989692
 20
76.3166524959
 30
0.0
 11
61.7481668705
 21
75.2961418087
 31
0.0
  0
LINE
  5
2BA
330
1F
100
AcDbEntity
  8
0
  6
Continuous
 62
     7
370
    15
100
AcDbLine
 10
147.442074396
 20
24.6803892577
 30
0.0
 11
147.654175777
 21
24.8028680265
 31
0.0
  0
LINE
  5
2BB
330
1F
100
AcDbEntity
  8
0
  6
Continuous
 62
     7
370
    15
100
AcDbLine
 10
153.4338336994
 20
34.8146151101
 30
0.0
 11
153.4338297481
 21
35.0595394086
 31
0.0
  0
LINE
  5
2BC
330
1F
100
AcDbEntity
  8
0
  6
Continuous
 62
     7
370
    15
100
AcDbLine
 10
138.3351519572
 20
27.0709409973
 30
0.0
 11
143.2039453604
 21
24.2602463929
 31
0.0
  0
LINE
  5
2BD
330
1F
100
AcDbEntity
  8
0
  6
Continuous
 62
     7
370
    15
100
AcDbLine
 10
151.6782554569
 20
38.939773835
 30
0.0
 11
151.3241903193
 21
39.1441712882
 31
0.0
  0
LINE
  5
2BE
330
1F
100
AcDbEntity
  8
0
  6
Continuous
 62
     7
370
    15
100
AcDbLine
 10
32.2691331987
 20
88.3015502964
 30
0.0
 11
35.5139900896
 21
86.4283342858
 31
0.0
  0
LINE
  5
2BF
330
1F
100
AcDbEntity
  8
0
  6
Continuous
 62
     7
370
    15
100
AcDbLine
 10
3.4201132526
 20
111.0689122412
 30
0.0
 11
3.4201158868
 21
109.4360972706
 31
0.0
  0
LINE
  5
2C0
330
1F
100
AcDbEntity
  8
0
  6
Continuous
 62
     7
370
    15
100
AcDbLine
 10
16.145968755
 20
87.3918848027
 30
0.0
 11
17.5599500655
 21
86.5753423255
 31
0.0
  0
LINE
  5
2C1
330
1F
100
AcDbEntity
  8
0
  6
Continuous
 62
     7
370
    15
100
AcDbLine
 10
9.5429624257
 20
121.3687804983
 30
0.0
 11
7.5630615334
 21
120.225808042
 31
0.0
  0
LINE
  5
2C2
330
1F
100
AcDbEntity
  8
0
  6
Continuous
 62
     7
370
    15
100
AcDbLine
 10
27.5614355871
 20
85.5838545689
 30
0.0
 11
29.5413364795
 21
86.7268270252
 31
0.0
  0
LINE
  5
2C3
330
1F
100
AcDbEntity
  8
0
  6
Continuous
 62
     7
370
    15
100
AcDbLine
 10
33.6842847602
 20
95.883722826
 30
0.0
 11
33.6842847602
 21
96.047004171
 31
0.0
  0
LINE
  5
2C4
330
1F
100
AcDbEntity
  8
0
  6
Continuous
 62
     7
370
    15
100
AcDbLine
 10
19.6858460785
 20
120.2956387981
 30
0.0
 11
19.5444479474
 21
120.3772927416
 31
0.0
  0
LINE
  5
2C5
330
1F
100
AcDbEntity
  8
0
  6
Continuous
 62
     7
370
    15
100
AcDbLine
 10
109.4861267427
 20
49.8383059834
 30
0.0
 11
109.4861320111
 21
48.2054894921
 31
0.0
  0
LINE
  5
2C6
330
1F
100
AcDbEntity
  8
0
  6
Continuous
 62
     7
370
    15
100
AcDbLine
 10
122.2119830606
 20
26.1612780742
 30
0.0
 11
123.625962413
 21
25.3447367274
 31
0.0
  0
LINE
  5
2C7
330
1F
100
AcDbEntity
  8
0
  6
Continuous
 62
     7
370
    15
100
AcDbLine
 10
115.60897855
 20
60.1381727198
 30
0.0
 11
113.6290776577
 21
58.9952002635
 31
0.0
  0
LINE
  5
2C8
330
1F
100
AcDbEntity
  8
0
  6
Continuous
 62
     7
370
    15
100
AcDbLine
 10
133.6274517114
 20
24.3532467905
 30
0.0
 11
135.6073526038
 21
25.4962192468
 31
0.0
  0
LINE
  5
2C9
330
1F
100
AcDbEntity
  8
0
  6
Continuous
 62
     7
370
    15
100
AcDbLine
 10
139.7503035187
 20
34.6531135269
 30
0.0
 11
139.7503008845
 21
34.8163963926
 31
0.0
  0
LINE
  5
2CA
330
1F
100
AcDbEntity
  8
0
  6
Continuous
 62
     7
370
    15
100
AcDbLine
 10
125.7518678911
 20
59.0650277359
 30
0.0
 11
125.6104678485
 21
59.1466827829
 31
0.0
  0
SPLINE
  5
2CB
330
1F
100
AcDbEntity
  8
0
  6
Continuous
 62
     7
370
    15
100
AcDbSpline
210
0.0
220
0.0
230
1.0
 70
     8
 71
     3
 72
    18
 73
    14
 74
     0
 42
0.000000001
 43
0.00000001
 40
0.0
 40
0.0
 40
0.0
 40
0.0
 40
0.0548215760951277
 40
0.1402275410194977
 40
0.2253509248014523
 40
0.3161706356781221
 40
0.4154222567229109
 40
0.5195699506340963
 40
0.6249854664569171
 40
0.7333937630734559
 40
0.834435420098355
 40
0.9275375597328316
 40
1.0
 40
1.0
 40
1.0
 40
1.0
 10
82.64075875527512
 20
77.3800930260625
 30
0.0
 10
82.7325846117522
 20
77.33522663367579
 30
0.0
 10
82.96746501784355
 20
77.22046335383342
 30
0.0
 10
83.39539942011021
 20
77.21160367221613
 30
0.0
 10
83.86596992065229
 20
77.31566947270548
 30
0.0
 10
84.32564593951591
 20
77.55551441068631
 30
0.0
 10
84.76260769444424
 20
77.92558882615313
 30
0.0
 10
85.14764255270052
 20
78.4175851990657
 30
0.0
 10
85.44135333114727
 20
78.99569689347088
 30
0.0
 10
85.60626019383179
 20
79.59910054540929
 30
0.0
 10
85.62464387870628
 20
80.17210948048195
 30
0.0
 10
85.51999277613845
 20
80.66058104965629
 30
0.0
 10
85.35947354802632
 20
80.92131552138413
 30
0.0
 10
85.28921930049513
 20
81.03543084782893
 30
0.0
  0
SPLINE
  5
2CC
330
1F
100
AcDbEntity
  8
0
  6
Continuous
 62
     7
370
    15
100
AcDbSpline
210
0.0
220
0.0
230
1.0
 70
     8
 71
     3
 72
     9
 73
     5
 74
     0
 42
0.000000001
 43
0.00000001
 40
0.0
 40
0.0
 40
0.0
 40
0.0
 40
0.9354020831968124
 40
1.0
 40
1.0
 40
1.0
 40
1.0
 10
85.28921930049513
 20
81.03543084782893
 30
0.0
 10
85.19635881649643
 20
81.16179981106704
 30
0.0
 10
85.0970854818879
 20
81.29689568642179
 30
0.0
 10
84.95046795645204
 20
81.3663849166684
 30
0.0
 10
84.94099676974204
 20
81.37087377618258
 30
0.0
  0
LINE
  5
2CD
330
1F
100
AcDbEntity
  8
0
  6
Continuous
 62
     7
370
    15
100
AcDbLine
 10
77.7394991078
 20
79.6149917655
 30
0.0
 11
82.6331591517
 21
77.359854396
 31
0.0
  0
LINE
  5
2CE
330
1F
100
AcDbEntity
  8
0
  6
Continuous
 62
     7
370
    15
100
AcDbLine
 10
84.9490981843
 20
81.3716119198
 30
0.0
 11
80.5489685168
 21
84.4816640317
 31
0.0
  0
SPLINE
  5
2CF
330
1F
100
AcDbEntity
  8
0
  6
Continuous
 62
     7
370
    15
100
AcDbSpline
210
0.0
220
0.0
230
1.0
 70
     8
 71
     3
 72
    12
 73
     8
 74
     0
 42
0.000000001
 43
0.00000001
 40
0.0
 40
0.0
 40
0.0
 40
0.0
 40
0.0737870960806093
 40
0.328626857371169
 40
0.59022964202139
 40
0.8552009771729773
 40
1.0
 40
1.0
 40
1.0
 40
1.0
 10
75.65139013312067
 20
81.75711282275725
 30
0.0
 10
75.67667453309602
 20
81.68756207029566
 30
0.0
 10
75.78928409961617
 20
81.37780268927497
 30
0.0
 10
76.13208932786425
 20
80.87134829761905
 30
0.0
 10
76.67415648771726
 20
80.28498960072211
 30
0.0
 10
77.22764903004638
 20
79.85765440018142
 30
0.0
 10
77.61505280597999
 20
79.69192355700494
 30
0.0
 10
77.75194823314413
 20
79.63335986717965
 30
0.0
  0
SPLINE
  5
2D0
330
1F
100
AcDbEntity
  8
0
  6
Continuous
 62
     7
370
    15
100
AcDbSpline
210
0.0
220
0.0
230
1.0
 70
     8
 71
     3
 72
    12
 73
     8
 74
     0
 42
0.000000001
 43
0.00000001
 40
0.0
 40
0.0
 40
0.0
 40
0.0
 40
0.0809010214665568
 40
0.3642685118736991
 40
0.6307206083631475
 40
0.8802982321476922
 40
0.9999999999999999
 40
0.9999999999999999
 40
0.9999999999999999
 40
0.9999999999999999
 10
80.54416114192267
 20
84.46482389648077
 30
0.0
 10
80.47940925870424
 20
84.51646687504005
 30
0.0
 10
80.18785456985837
 20
84.74899683087366
 30
0.0
 10
79.5874057482437
 20
85.0154018719366
 30
0.0
 10
78.79984019514177
 20
85.22627656889759
 30
0.0
 10
78.14759334775833
 20
85.28680784403961
 30
0.0
 10
77.78061303506973
 20
85.23564678234219
 30
0.0
 10
77.66165651274363
 20
85.21906294455142
 30
0.0
  0
SPLINE
  5
2D1
330
1F
100
AcDbEntity
  8
0
  6
Continuous
 62
     7
370
    15
100
AcDbSpline
210
0.0
220
0.0
230
1.0
 70
     8
 71
     3
 72
    11
 73
     7
 74
     0
 42
0.000000001
 43
0.00000001
 40
0.0
 40
0.0
 40
0.0
 40
0.0
 40
0.1934318391543127
 40
0.5186053987795568
 40
0.8804392924532677
 40
1.0
 40
1.0
 40
1.0
 40
1.0
 10
77.64756761153986
 20
85.24104117661949
 30
0.0
 10
77.56330083220398
 20
85.2311030671555
 30
0.0
 10
77.33737521989315
 20
85.20445824361346
 30
0.0
 10
76.79970756396716
 20
85.27310483850962
 30
0.0
 10
76.28476729205255
 20
85.42216040966538
 30
0.0
 10
76.01841217408837
 20
85.60056461502066
 30
0.0
 10
75.95225936248274
 20
85.64487365581073
 30
0.0
  0
SPLINE
  5
2D2
330
1F
100
AcDbEntity
  8
0
  6
Continuous
 62
     7
370
    15
100
AcDbSpline
210
0.0
220
0.0
230
1.0
 70
     8
 71
     3
 72
    11
 73
     7
 74
     0
 42
0.000000001
 43
0.00000001
 40
0.0
 40
0.0
 40
0.0
 40
0.0
 40
0.0043202278537959
 40
0.374322346700137
 40
0.7163561564229792
 40
1.0
 40
1.0
 40
1.0
 40
1.0
 10
74.44183484986374
 20
83.02984129202109
 30
0.0
 10
74.4444274860828
 20
83.02871698538212
 30
0.0
 10
74.6690641734316
 20
82.93130242444727
 30
0.0
 10
75.03503849830282
 20
82.60835141528847
 30
0.0
 10
75.44646844831229
 20
82.14007932141298
 30
0.0
 10
75.57758643178639
 20
81.86998371799723
 30
0.0
 10
75.63702727740157
 20
81.74753895002118
 30
0.0
  0
LINE
  5
2D3
330
1F
100
AcDbEntity
  8
0
  6
Continuous
 62
     7
370
    15
100
AcDbLine
 10
70.9059803118
 20
85.0721667365
 30
0.0
 11
74.4415134801
 21
83.0311468827
 31
0.0
  0
LINE
  5
2D4
330
1F
100
AcDbEntity
  8
0
  6
Continuous
 62
     7
370
    15
100
AcDbLine
 10
75.941392061
 20
85.6292933932
 30
0.0
 11
72.4058588926
 21
87.6703132469
 31
0.0
  0
SPLINE
  5
2D5
330
1F
100
AcDbEntity
  8
0
  6
Continuous
 62
     7
370
    15
100
AcDbSpline
210
0.0
220
0.0
230
1.0
 70
     8
 71
     3
 72
    10
 73
     6
 74
     0
 42
0.000000001
 43
0.00000001
 40
0.0
 40
0.0
 40
0.0
 40
0.0
 40
0.3832845621454558
 40
0.8924865010163401
 40
1.0
 40
1.0
 40
1.0
 40
1.0
 10
72.41672619411986
 20
87.68589350957748
 30
0.0
 10
72.27089473977311
 20
87.77016372035965
 30
0.0
 10
71.93132300304691
 20
87.96638875259127
 30
0.0
 10
71.63825084568724
 20
88.27982755352359
 30
0.0
 10
71.49484487045518
 20
88.47011772714569
 30
0.0
 10
71.46984455876199
 20
88.50329147492714
 30
0.0
  0
SPLINE
  5
2D6
330
1F
100
AcDbEntity
  8
0
  6
Continuous
 62
     7
370
    15
100
AcDbSpline
210
0.0
220
0.0
230
1.0
 70
     8
 71
     3
 72
    11
 73
     7
 74
     0
 42
0.000000001
 43
0.00000001
 40
0.0
 40
0.0
 40
0.0
 40
0.0
 40
0.0590687537847987
 40
0.3376050495616819
 40
0.6569900448842168
 40
0.9999999999999999
 40
0.9999999999999999
 40
0.9999999999999999
 40
0.9999999999999999
 10
69.12309486278524
 20
85.45448688634411
 30
0.0
 10
69.14311425785442
 20
85.45875753446424
 30
0.0
 10
69.25753429266926
 20
85.48316624935792
 30
0.0
 10
69.655676301328
 20
85.48912405346906
 30
0.0
 10
70.26206385394488
 20
85.38740617758589
 30
0.0
 10
70.68650791288152
 20
85.17885654529226
 30
0.0
 10
70.90629904732282
 20
85.07086266646648
 30
0.0
  0
SPLINE
  5
2D7
330
1F
100
AcDbEntity
  8
0
  6
Continuous
 62
     7
370
    15
100
AcDbSpline
210
0.0
220
0.0
230
1.0
 70
     8
 71
     3
 72
     9
 73
     5
 74
     0
 42
0.000000001
 43
0.00000001
 40
0.0
 40
0.0
 40
0.0
 40
0.0
 40
0.4720265100206971
 40
1.0
 40
1.0
 40
1.0
 40
1.0
 10
71.46984455876199
 20
88.50329147492714
 30
0.0
 10
71.40795928192787
 20
88.59452795160519
 30
0.0
 10
71.27685377085946
 20
88.78781471567709
 30
0.0
 10
71.21714609007503
 20
88.94188433563542
 30
0.0
 10
71.18562201747271
 20
89.0232290105846
 30
0.0
  0
SPLINE
  5
2D8
330
1F
100
AcDbEntity
  8
0
  6
Continuous
 62
     7
370
    15
100
AcDbSpline
210
0.0
220
0.0
230
1.0
 70
     8
 71
     3
 72
     9
 73
     5
 74
     0
 42
0.000000001
 43
0.00000001
 40
0.0
 40
0.0
 40
0.0
 40
0.0
 40
0.4132119395780112
 40
1.0
 40
1.0
 40
1.0
 40
1.0
 10
71.16426015072277
 20
89.01414973953753
 30
0.0
 10
71.11324428003054
 20
89.1568016600138
 30
0.0
 10
70.98978252637377
 20
89.50202866536597
 30
0.0
 10
70.77911157210198
 20
89.80911181081247
 30
0.0
 10
70.6554923714576
 20
89.98930453411732
 30
0.0
  0
SPLINE
  5
2D9
330
1F
100
AcDbEntity
  8
0
  6
Continuous
 62
     7
370
    15
100
AcDbSpline
210
0.0
220
0.0
230
1.0
 70
     8
 71
     3
 72
    12
 73
     8
 74
     0
 42
0.000000001
 43
0.00000001
 40
0.0
 40
0.0
 40
0.0
 40
0.0
 40
0.1356011716700836
 40
0.4261195429697841
 40
0.698847467729681
 40
0.9543696196692848
 40
0.9999999999999999
 40
0.9999999999999999
 40
0.9999999999999999
 40
0.9999999999999999
 10
66.34384737827988
 20
86.00026780094697
 30
0.0
 10
66.45518511525414
 20
85.9299129673377
 30
0.0
 10
66.80505809209093
 20
85.70882660669591
 30
0.0
 10
67.46150283288368
 20
85.50333322463865
 30
0.0
 10
68.24207897386908
 20
85.39314601693563
 30
0.0
 10
68.8026494942113
 20
85.39269041154044
 30
0.0
 10
69.08032611062967
 20
85.45774442712198
 30
0.0
 10
69.12239943978481
 20
85.46760135726515
 30
0.0
  0
SPLINE
  5
2DA
330
1F
100
AcDbEntity
  8
0
  6
Continuous
 62
     7
370
    15
100
AcDbSpline
210
0.0
220
0.0
230
1.0
 70
     8
 71
     3
 72
    10
 73
     6
 74
     0
 42
0.000000001
 43
0.00000001
 40
0.0
 40
0.0
 40
0.0
 40
0.0
 40
0.4503429332763783
 40
0.9084779521709976
 40
1.0
 40
1.0
 40
1.0
 40
1.0
 10
70.6554923714576
 20
89.98930453411732
 30
0.0
 10
70.48427579317591
 20
90.1949957248279
 30
0.0
 10
70.13888015149583
 20
90.60993709041537
 30
0.0
 10
69.67106734569545
 20
90.99964950394967
 30
0.0
 10
69.37478444073179
 20
91.14139740990107
 30
0.0
 10
69.32545110210917
 20
91.16499950548673
 30
0.0
  0
LINE
  5
2DB
330
1F
100
AcDbEntity
  8
0
  6
Continuous
 62
     7
370
    15
100
AcDbLine
 10
54.0639139373
 20
99.9908962977
 30
0.0
 11
52.4375684691
 21
100.9297655521
 31
0.0
  0
LINE
  5
2DC
330
1F
100
AcDbEntity
  8
0
  6
Continuous
 62
     7
370
    15
100
AcDbLine
 10
69.3315321021
 20
91.1770879383
 30
0.0
 11
56.5387874185
 21
98.562182248
 31
0.0
  0
LINE
  5
2DD
330
1F
100
AcDbEntity
  8
0
  6
Continuous
 62
     7
370
    15
100
AcDbLine
 10
53.5390315739
 20
93.365889227
 30
0.0
 11
66.3317762574
 21
85.9807949173
 31
0.0
  0
LINE
  5
2DE
330
1F
100
AcDbEntity
  8
0
  6
Continuous
 62
     7
370
    15
100
AcDbLine
 10
111.4569660627
 20
59.9305773373
 30
0.0
 11
113.3605811592
 21
58.8316437335
 31
0.0
  0
LINE
  5
2DF
330
1F
100
AcDbEntity
  8
0
  6
Continuous
 62
     7
370
    15
100
AcDbLine
 10
119.3536588687
 20
62.2999288236
 30
0.0
 11
114.4567219073
 21
65.1268703582
 31
0.0
  0
SPLINE
  5
2E0
330
1F
100
AcDbEntity
  8
0
  6
Continuous
 62
     7
370
    15
100
AcDbSpline
210
0.0
220
0.0
230
1.0
 70
     8
 71
     3
 72
    11
 73
     7
 74
     0
 42
0.000000001
 43
0.00000001
 40
0.0
 40
0.0
 40
0.0
 40
0.0
 40
0.2814956546877679
 40
0.5631069953618714
 40
0.8274057396683501
 40
1.0
 40
1.0
 40
1.0
 40
1.0
 10
114.4541088027189
 20
65.12276406625377
 30
0.0
 10
114.2107114360267
 20
65.24857046343728
 30
0.0
 10
113.7238166738712
 20
65.50023496033297
 30
0.0
 10
112.9372119724381
 20
65.67745429521126
 30
0.0
 10
112.2408267034456
 20
65.72867168832482
 30
0.0
 10
111.8293351460249
 20
65.66224775465822
 30
0.0
 10
111.6667757087445
 20
65.63600702849001
 30
0.0
  0
SPLINE
  5
2E1
330
1F
100
AcDbEntity
  8
0
  6
Continuous
 62
     7
370
    15
100
AcDbSpline
210
0.0
220
0.0
230
1.0
 70
     8
 71
     3
 72
    11
 73
     7
 74
     0
 42
0.000000001
 43
0.00000001
 40
0.0
 40
0.0
 40
0.0
 40
0.0
 40
0.2602782734686737
 40
0.5364384798118143
 40
0.8177397967137828
 40
1.0
 40
1.0
 40
1.0
 40
1.0
 10
109.610677265544
 20
62.08652379557611
 30
0.0
 10
109.7100743562533
 20
61.85806622182198
 30
0.0
 10
109.9149336536785
 20
61.38721081029293
 30
0.0
 10
110.4001024254533
 20
60.75898618290761
 30
0.0
 10
110.9191841231803
 20
60.25611737100554
 30
0.0
 10
111.3124577658031
 20
60.03696548068351
 30
0.0
 10
111.4670826234109
 20
59.95080071863762
 30
0.0
  0
SPLINE
  5
2E2
330
1F
100
AcDbEntity
  8
0
  6
Continuous
 62
     7
370
    15
100
AcDbSpline
210
0.0
220
0.0
230
1.0
 70
     8
 71
     3
 72
    11
 73
     7
 74
     0
 42
0.000000001
 43
0.00000001
 40
0.0
 40
0.0
 40
0.0
 40
0.0
 40
0.1937224351163937
 40
0.5288269947603169
 40
0.8281764900775846
 40
1.0
 40
1.0
 40
1.0
 40
1.0
 10
108.3719484605834
 20
63.41865711936067
 30
0.0
 10
108.49278377755
 20
63.35257168280609
 30
0.0
 10
108.8226422035707
 20
63.1721704670688
 30
0.0
 10
109.2199038921257
 20
62.76054195541784
 30
0.0
 10
109.5056705122549
 20
62.33788876494042
 30
0.0
 10
109.5760599276567
 20
62.15288928721509
 30
0.0
 10
109.6017289627695
 20
62.08542519389248
 30
0.0
  0
SPLINE
  5
2E3
330
1F
100
AcDbEntity
  8
0
  6
Continuous
 62
     7
370
    15
100
AcDbSpline
210
0.0
220
0.0
230
1.0
 70
     8
 71
     3
 72
    12
 73
     8
 74
     0
 42
0.000000001
 43
0.00000001
 40
0.0
 40
0.0
 40
0.0
 40
0.0
 40
0.0250230448539492
 40
0.2993215283689495
 40
0.6147359680450075
 40
0.960707789351396
 40
0.9999999999999999
 40
0.9999999999999999
 40
0.9999999999999999
 40
0.9999999999999999
 10
111.669540278589
 20
65.65166139038284
 30
0.0
 10
111.6615827007642
 20
65.64988447090242
 30
0.0
 10
111.566395469532
 20
65.62862925365104
 30
0.0
 10
111.1953303769345
 20
65.611561169056
 30
0.0
 10
110.6165548537123
 20
65.71201033993961
 30
0.0
 10
110.1288257358731
 20
65.86854502697336
 30
0.0
 10
109.9100379765368
 20
66.02623683250489
 30
0.0
 10
109.8877243058743
 20
66.04231946448343
 30
0.0
  0
LINE
  5
2E4
330
1F
100
AcDbEntity
  8
0
  6
Continuous
 62
     7
370
    15
100
AcDbLine
 10
109.8825152188
 20
66.0355000598
 30
0.0
 11
106.3469846846
 21
68.0765183929
 31
0.0
  0
LINE
  5
2E5
330
1F
100
AcDbEntity
  8
0
  6
Continuous
 62
     7
370
    15
100
AcDbLine
 10
104.8471061038
 20
65.4783718824
 30
0.0
 11
108.3826366379
 21
63.4373535493
 31
0.0
  0
SPLINE
  5
2E6
330
1F
100
AcDbEntity
  8
0
  6
Continuous
 62
     7
370
    15
100
AcDbSpline
210
0.0
220
0.0
230
1.0
 70
     8
 71
     3
 72
    11
 73
     7
 74
     0
 42
0.000000001
 43
0.00000001
 40
0.0
 40
0.0
 40
0.0
 40
0.0
 40
0.15125345751126
 40
0.4726430025600735
 40
0.8329488501694972
 40
1.0
 40
1.0
 40
1.0
 40
1.0
 10
103.1507481347603
 20
65.86732245610494
 30
0.0
 10
103.2134002944511
 20
65.87575143264299
 30
0.0
 10
103.4091783306058
 20
65.9020906439575
 30
0.0
 10
103.9122684266593
 20
65.85100991646478
 30
0.0
 10
104.4471050734476
 20
65.70786884693699
 30
0.0
 10
104.7427584002404
 20
65.51938471129546
 30
0.0
 10
104.8364126580425
 20
65.45967849380604
 30
0.0
  0
SPLINE
  5
2E7
330
1F
100
AcDbEntity
  8
0
  6
Continuous
 62
     7
370
    15
100
AcDbSpline
210
0.0
220
0.0
230
1.0
 70
     8
 71
     3
 72
    11
 73
     7
 74
     0
 42
0.000000001
 43
0.00000001
 40
0.0
 40
0.0
 40
0.0
 40
0.0
 40
0.3283360147322542
 40
0.673405045341837
 40
0.9773708340186625
 40
1.0
 40
1.0
 40
1.0
 40
1.0
 10
106.3521937716894
 20
68.08333779757159
 30
0.0
 10
106.1664708550688
 20
68.20221533677068
 30
0.0
 10
105.7855600092393
 20
68.44602878117698
 30
0.0
 10
105.3932949620394
 20
68.90499514008955
 30
0.0
 10
105.1905912406995
 20
69.24696847740746
 30
0.0
 10
105.1523380428339
 20
69.35525932433636
 30
0.0
 10
105.1496875488459
 20
69.36276259869643
 30
0.0
  0
SPLINE
  5
2E8
330
1F
100
AcDbEntity
  8
0
  6
Continuous
 62
     7
370
    15
100
AcDbSpline
210
0.0
220
0.0
230
1.0
 70
     8
 71
     3
 72
    11
 73
     7
 74
     0
 42
0.000000001
 43
0.00000001
 40
0.0
 40
0.0
 40
0.0
 40
0.0
 40
0.2218608612527001
 40
0.4822663135068007
 40
0.7472952331475107
 40
1.0
 40
1.0
 40
1.0
 40
1.0
 10
105.1402492889575
 20
69.36094397163397
 30
0.0
 10
105.0444156125913
 20
69.56324833542796
 30
0.0
 10
104.8360987713511
 20
70.00300404169533
 30
0.0
 10
104.3485449823677
 20
70.59543262771741
 30
0.0
 10
103.7492837692596
 20
71.1278518261187
 30
0.0
 10
103.2748706399324
 20
71.36747992284586
 30
0.0
 10
103.0433105495499
 20
71.48444191294723
 30
0.0
  0
SPLINE
  5
2E9
330
1F
100
AcDbEntity
  8
0
  6
Continuous
 62
     7
370
    15
100
AcDbSpline
210
0.0
220
0.0
230
1.0
 70
     8
 71
     3
 72
    12
 73
     8
 74
     0
 42
0.000000001
 43
0.00000001
 40
0.0
 40
0.0
 40
0.0
 40
0.0
 40
0.0314723184794324
 40
0.316506465580984
 40
0.5847255009680554
 40
0.8360125170880013
 40
1.0
 40
1.0
 40
1.0
 40
1.0
 10
100.2382389007085
 20
66.63690932076382
 30
0.0
 10
100.2629949222811
 20
66.61611394472888
 30
0.0
 10
100.511957860772
 20
66.40698187924276
 30
0.0
 10
101.0678665223549
 20
66.14719964407362
 30
0.0
 10
101.8553169949971
 20
65.90354126806712
 30
0.0
 10
102.5580352214962
 20
65.82166171398529
 30
0.0
 10
102.9748531703503
 20
65.86914480725717
 30
0.0
 10
103.1394501451813
 20
65.88789537577192
 30
0.0
  0
LINE
  5
2EA
330
1F
100
AcDbEntity
  8
0
  6
Continuous
 62
     7
370
    15
100
AcDbLine
 10
103.0489964228
 20
71.4926750308
 30
0.0
 11
98.1553363789
 21
73.7478131607
 31
0.0
  0
LINE
  5
2EB
330
1F
100
AcDbEntity
  8
0
  6
Continuous
 62
     7
370
    15
100
AcDbLine
 10
95.8393973463
 20
69.7360556369
 30
0.0
 11
100.2395256967
 21
66.6260020042
 31
0.0
  0
SPLINE
  5
2EC
330
1F
100
AcDbEntity
  8
0
  6
Continuous
 62
     7
370
    15
100
AcDbSpline
210
0.0
220
0.0
230
1.0
 70
     8
 71
     3
 72
    10
 73
     6
 74
     0
 42
0.000000001
 43
0.00000001
 40
0.0
 40
0.0
 40
0.0
 40
0.0
 40
0.2247852229216905
 40
0.5827269547557533
 40
1.0
 40
1.0
 40
1.0
 40
1.0
 10
98.14397516909237
 20
73.7290407574962
 30
0.0
 10
98.05423834673913
 20
73.77280931590818
 30
0.0
 10
97.82160710639471
 20
73.88627370838896
 30
0.0
 10
97.36642347098343
 20
73.90303451309305
 30
0.0
 10
97.04039125675443
 20
73.80118145409779
 30
0.0
 10
96.86489865921672
 20
73.74635724621237
 30
0.0
  0
SPLINE
  5
2ED
330
1F
100
AcDbEntity
  8
0
  6
Continuous
 62
     7
370
    15
100
AcDbSpline
210
0.0
220
0.0
230
1.0
 70
     8
 71
     3
 72
    16
 73
    12
 74
     0
 42
0.000000001
 43
0.00000001
 40
0.0
 40
0.0
 40
0.0
 40
0.0
 40
0.0777866995917671
 40
0.1965012380054285
 40
0.319552990456603
 40
0.4441491152195452
 40
0.5720366768245885
 40
0.6922569386682973
 40
0.803479319012372
 40
0.9075239095671099
 40
1.0
 40
1.0
 40
1.0
 40
1.0
 10
96.86489865921672
 20
73.74635724621237
 30
0.0
 10
96.7542736251606
 20
73.69371194824403
 30
0.0
 10
96.47481767368679
 20
73.56072178051312
 30
0.0
 10
96.06957117273329
 20
73.22517534395858
 30
0.0
 10
95.67496259444702
 20
72.74308467109982
 30
0.0
 10
95.37071264914297
 20
72.17074791494663
 30
0.0
 10
95.19316858263352
 20
71.56947675952416
 30
0.0
 10
95.1573743522249
 20
70.99066897569537
 30
0.0
 10
95.26280881585899
 20
70.47575285214779
 30
0.0
 10
95.48414440035819
 20
70.03877177941334
 30
0.0
 10
95.72209799704835
 20
69.84080154538269
 30
0.0
 10
95.83407103833727
 20
69.74764334354239
 30
0.0
  0
LINE
  5
2EE
330
1F
100
AcDbEntity
  8
0
  6
Continuous
 62
     7
370
    15
100
AcDbLine
 10
132.629847661
 20
69.9641113066
 30
0.0
 11
115.9625300229
 21
60.3422736407
 31
0.0
  0
LINE
  5
2EF
330
1F
100
AcDbEntity
  8
0
  6
Continuous
 62
     7
370
    15
100
AcDbLine
 10
149.1258393065
 20
79.4870445822
 30
0.0
 11
144.8587030729
 21
77.0236792688
 31
0.0
  0
LINE
  5
2F0
330
1F
100
AcDbEntity
  8
0
  6
Continuous
 62
     7
370
    15
100
AcDbLine
 10
153.4006048606
 20
35.7680451327
 30
0.0
 11
169.1242133603
 21
44.8450911092
 31
0.0
  0
LINE
  5
2F1
330
1F
100
AcDbEntity
  8
0
  6
Continuous
 62
     7
370
    15
100
AcDbLine
 10
135.9609040767
 20
25.7003201677
 30
0.0
 11
138.4033666315
 21
27.1103237878
 31
0.0
  0
LINE
  5
2F2
330
1F
100
AcDbEntity
  8
0
  6
Continuous
 62
     7
370
    15
100
AcDbLine
 10
173.2671642752
 20
54.0019853893
 30
0.0
 11
173.2671606943
 21
54.2469099016
 31
0.0
  0
LINE
  5
2F3
330
1F
100
AcDbEntity
  8
0
  6
Continuous
 62
     7
370
    15
100
AcDbLine
 10
159.3394185026
 20
78.3730783713
 30
0.0
 11
159.127328605
 21
78.4955546453
 31
0.0
  0
LINE
  5
2F4
330
1F
100
AcDbEntity
  8
0
  6
Continuous
 62
     7
370
    15
100
AcDbLine
 10
26.5638315367
 20
131.1947190851
 30
0.0
 11
9.8965138986
 21
121.5728814192
 31
0.0
  0
LINE
  5
2F5
330
1F
100
AcDbEntity
  8
0
  6
Continuous
 62
     7
370
    15
100
AcDbLine
 10
43.0598231822
 20
140.7176523607
 30
0.0
 11
38.7926869486
 21
138.2542870472
 31
0.0
  0
LINE
  5
2F6
330
1F
100
AcDbEntity
  8
0
  6
Continuous
 62
     7
370
    15
100
AcDbLine
 10
53.2908913447
 20
100.4371532164
 30
0.0
 11
63.058197236
 21
106.0756988876
 31
0.0
  0
LINE
  5
2F7
330
1F
100
AcDbEntity
  8
0
  6
Continuous
 62
     7
370
    15
100
AcDbLine
 10
29.8948879524
 20
86.9309279461
 30
0.0
 11
32.3373505072
 21
88.3409315662
 31
0.0
  0
LINE
  5
2F8
330
1F
100
AcDbEntity
  8
0
  6
Continuous
 62
     7
370
    15
100
AcDbLine
 10
67.2011455167
 20
115.2325946884
 30
0.0
 11
67.2011458871
 21
115.4775169197
 31
0.0
  0
LINE
  5
2F9
330
1F
100
AcDbEntity
  8
0
  6
Continuous
 62
     7
370
    15
100
AcDbLine
 10
53.2734062708
 20
139.6036839026
 30
0.0
 11
53.0613087038
 21
139.726164604
 31
0.0
  0
LWPOLYLINE
  5
2FA
330
1F
100
AcDbEntity
  8
0
  6
Continuous
 62
     7
370
    15
100
AcDbPolyline
 90
       17
 70
   128
 43
0.0
 10
40.4114183251
 20
92.6831048986
 10
39.8482126227
 20
91.4880524794
 10
39.4035765418
 20
90.2742326876
 10
39.0874435678
 20
89.0687606065
 10
38.9068706637
 20
87.8985624242
 10
38.8658960244
 20
86.7897801946
 10
38.9654337097
 20
85.7671817281
 10
39.2032604733
 20
84.8536107781
 10
39.5740631782
 20
84.0694748648
 10
40.0695573343
 20
83.4322889865
 10
40.6786793941
 20
82.956289286
 10
41.3878159253
 20
82.6521052702
 10
42.1811302498
 20
82.5265362029
 10
43.0409022518
 20
82.5823845316
 10
43.947920871
 20
82.818401858
 10
44.8819292783
 20
83.2293185541
 10
45.4909512393
 20
83.5842956758
  0
LWPOLYLINE
  5
2FB
330
1F
100
AcDbEntity
  8
0
  6
Continuous
 62
     7
370
    15
100
AcDbPolyline
 90
       18
 70
   128
 43
0.0
 10
51.4404675466
 20
93.8902772903
 10
51.4462614212
 20
94.5060106218
 10
51.3467237359
 20
95.5286090883
 10
51.1088982894
 20
96.4421807986
 10
50.7380955846
 20
97.2263170921
 10
50.2426001113
 20
97.8635022102
 10
49.6334793687
 20
98.3395024808
 10
48.9243415203
 20
98.643685261
 10
48.1310271959
 20
98.769255469
 10
47.271257828
 20
98.7134080906
 10
46.3642365746
 20
98.4773892198
 10
45.4302308015
 20
98.0664745375
 10
44.4900979303
 20
97.4898393351
 10
43.5648428965
 20
96.7603669425
 10
42.6751334612
 20
95.8943520393
 10
41.8408444974
 20
94.9111401603
 10
41.0806128149
 20
93.8326946957
 10
40.4114183251
 20
92.6831048986
  0
LWPOLYLINE
  5
2FC
330
1F
100
AcDbEntity
  8
0
  6
Continuous
 62
     7
370
    15
100
AcDbPolyline
 90
       18
 70
   128
 43
0.0
 10
40.1633762191
 20
92.8104808785
 10
40.8305740019
 20
93.9592948106
 10
41.5869492478
 20
95.0392726846
 10
42.4163781531
 20
96.0273948533
 10
43.3011880173
 20
96.9026041769
 10
44.2225154916
 20
97.6462440854
 10
45.1607254129
 20
98.2424659773
 10
46.0958243699
 20
98.6785640965
 10
47.0078769033
 20
98.945240625
 10
47.8774506818
 20
99.036815555
 10
48.6860063603
 20
98.9513336668
 10
49.4163164146
 20
98.6906200958
 10
50.0528115354
 20
98.2602292504
 10
50.5819270229
 20
97.6693345364
 10
50.9923846438
 20
96.9305295172
 10
51.2754389271
 20
96.0595619185
 10
51.425054971
 20
95.0749933045
 10
51.4493302386
 20
94.4441939026
  0
LWPOLYLINE
  5
2FD
330
1F
100
AcDbEntity
  8
0
  6
Continuous
 62
     7
370
    15
100
AcDbPolyline
 90
       17
 70
   128
 43
0.0
 10
45.0157033755
 20
83.2996192372
 10
44.3994005464
 20
82.9778795898
 10
43.4733526251
 20
82.6255512498
 10
42.5801581722
 20
82.4459468054
 10
41.7388491241
 20
82.4428926409
 10
40.9673563304
 20
82.6164509528
 10
40.282127599
 20
82.9629296712
 10
39.6977641785
 20
83.4749387687
 10
39.2267204629
 20
84.1415667155
 10
38.8790353044
 20
84.9486048414
 10
38.6621212802
 20
85.8788545826
 10
38.5806013727
 20
86.9124879564
 10
38.6362115051
 20
88.0274749503
 10
38.8277662974
 20
89.2000515905
 10
39.1511854078
 20
90.4052271679
 10
39.5995751924
 20
91.6173154137
 10
40.1633762191
 20
92.8104808785
  0
LWPOLYLINE
  5
2FE
330
1F
100
AcDbEntity
  8
0
  6
Continuous
 62
     7
370
    15
100
AcDbPolyline
 90
       12
 70
   128
 43
0.0
 10
36.5571311757
 20
94.8923218289
 10
35.993330149
 20
93.6991563641
 10
35.5449403644
 20
92.4870681183
 10
35.221521254
 20
91.2818925409
 10
35.0299664616
 20
90.1093159007
 10
34.9743563292
 20
88.9943289067
 10
35.0558762368
 20
87.960695533
 10
35.272790261
 20
87.0304457917
 10
35.6204754194
 20
86.2234076658
 10
36.0915191351
 20
85.5567797191
 10
36.6758825555
 20
85.0447706216
 10
36.8587814388
 20
84.9303319316
  0
LWPOLYLINE
  5
2FF
330
1F
100
AcDbEntity
  8
0
  6
Continuous
 62
     7
370
    15
100
AcDbPolyline
 90
       13
 70
   128
 43
0.0
 10
45.9580436879
 20
100.6924223206
 10
45.8100713712
 20
100.7724610462
 10
45.0797613169
 20
101.0331746172
 10
44.2712056383
 20
101.1186565053
 10
43.4016318599
 20
101.0270815754
 10
42.4895793264
 20
100.7604050469
 10
41.5544803694
 20
100.3243069276
 10
40.6162704481
 20
99.7280850358
 10
39.6949429739
 20
98.9844451273
 10
38.8101331097
 20
98.1092358036
 10
37.9807042044
 20
97.121113635
 10
37.2243289585
 20
96.0411357609
 10
36.5571311757
 20
94.8923218289
  0
LWPOLYLINE
  5
300
330
1F
100
AcDbEntity
  8
0
  6
Continuous
 62
     7
370
    15
100
AcDbPolyline
 90
       12
 70
   128
 43
0.0
 10
41.7974990979
 20
92.0885493235
 10
41.3289104362
 20
91.0712201811
 10
40.983329986
 20
90.0402847013
 10
40.771863442
 20
89.0288771114
 10
40.7013096175
 20
88.069506562
 10
40.7739365401
 20
87.1930084699
 10
40.9874103278
 20
86.4275536414
 10
41.3348663127
 20
85.7977421742
 10
41.8051408484
 20
85.323820159
 10
42.3831163871
 20
85.0210180442
 10
43.0502167053
 20
84.8990676954
 10
43.2167178304
 20
84.8971813334
  0
LWPOLYLINE
  5
301
330
1F
100
AcDbEntity
  8
0
  6
Continuous
 62
     7
370
    15
100
AcDbPolyline
 90
       12
 70
   128
 43
0.0
 10
49.1662354548
 20
95.2031637082
 10
48.7566497468
 20
95.7555719666
 10
48.2304068305
 20
96.145504206
 10
47.6053506278
 20
96.3587379059
 10
46.9015746488
 20
96.3884215015
 10
46.1416985803
 20
96.2336005807
 10
45.3501412526
 20
95.8992491311
 10
44.5523461913
 20
95.3961144788
 10
43.7739571196
 20
94.740369073
 10
43.0399908262
 20
93.9530885064
 10
42.3740363754
 20
93.0595755386
 10
41.7974990979
 20
92.0885493235
  0
ARC
  5
302
330
1F
100
AcDbEntity
  8
0
  6
Continuous
 62
     7
370
    15
100
AcDbCircle
 10
43.4021683916
 20
87.6822448162
 30
0.0
 40
2.735633775653412
100
AcDbArc
 50
170.8549332403
 51
263.7131582621
  0
LWPOLYLINE
  5
303
330
1F
100
AcDbEntity
  8
0
  6
Continuous
 62
     7
370
    15
100
AcDbPolyline
 90
        8
 70
   128
 43
0.0
 10
49.0521149599
 20
95.2690436398
 10
48.692718246
 20
95.73544568
 10
48.1706505018
 20
96.1222824436
 10
47.5505570906
 20
96.3338249787
 10
46.852365569
 20
96.3632723068
 10
46.098519134
 20
96.2096795381
 10
45.3132443209
 20
95.8779817047
 10
45.1200036547
 20
95.7712709616
  0
ARC
  5
304
330
1F
100
AcDbEntity
  8
0
  6
Continuous
 62
     7
370
    15
100
AcDbCircle
 10
46.7524830545
 20
94.2967125264
 30
0.0
 40
2.294007912633419
100
AcDbArc
 50
30.260431202
 51
54.5705401152
  0
LWPOLYLINE
  5
305
330
1F
100
AcDbEntity
  8
0
  6
Continuous
 62
     7
370
    15
100
AcDbPolyline
 90
        3
 70
   128
 43
0.0
 10
41.8409301082
 20
85.3543636451
 10
42.3726916275
 20
85.1864780672
 10
42.7844031172
 20
85.1467539186
  0
ARC
  5
306
330
1F
100
AcDbEntity
  8
0
  6
Continuous
 62
     7
370
    15
100
AcDbCircle
 10
48.1498853407
 20
89.1512006964
 30
0.0
 40
12.98360712377196
100
AcDbArc
 50
122.0190078307
 51
153.5800055
  0
ARC
  5
307
330
1F
100
AcDbEntity
  8
0
  6
Continuous
 62
     7
370
    15
100
AcDbCircle
 10
47.5300038177
 20
88.8752201235
 30
0.0
 40
12.56215564155246
100
AcDbArc
 50
151.1940537054
 51
178.2447380143
  0
LWPOLYLINE
  5
308
330
1F
100
AcDbEntity
  8
0
  6
Continuous
 62
     7
370
    15
100
AcDbPolyline
 90
        9
 70
   128
 43
0.0
 10
109.4880049117
 20
50.1028009179
 10
109.1634557389
 20
48.9997122664
 10
108.9321564685
 20
47.8147955219
 10
108.8358904323
 20
46.6801471527
 10
108.8767070209
 20
45.6199477853
 10
109.0537395897
 20
44.656796557
 10
109.3632107274
 20
43.8112187156
 10
109.7985270864
 20
43.10123709
 10
110.2934759678
 20
42.5881169812
  0
ARC
  5
309
330
1F
100
AcDbEntity
  8
0
  6
Continuous
 62
     7
370
    15
100
AcDbCircle
 10
120.2622692228
 20
46.4089426059
 30
0.0
 40
11.43118154531724
100
AcDbArc
 50
160.4461453519
 51
178.9324472287
  0
ARC
  5
30A
330
1F
100
AcDbEntity
  8
0
  6
Continuous
 62
     7
370
    15
100
AcDbCircle
 10
67.0217641491
 20
78.0084494233
 30
0.0
 40
8.163333575701468
100
AcDbArc
 50
115.3026606826
 51
183.0085517732
  0
ARC
  5
30B
330
1F
100
AcDbEntity
  8
0
  6
Continuous
 62
     7
370
    15
100
AcDbCircle
 10
64.1536339991
 20
83.5328032715
 30
0.0
 40
2.616408969239994
100
AcDbArc
 50
9.4962038589
 51
57.3791868317
  0
LWPOLYLINE
  5
30C
330
1F
100
AcDbEntity
  8
0
  6
Continuous
 62
     7
370
    15
100
AcDbPolyline
 90
       23
 70
   128
 43
0.0
 10
61.7345955852
 20
75.3039755851
 10
61.7029643754
 20
75.2937404413
 10
60.9641722679
 20
75.1428989455
 10
60.281822693
 20
75.1767100343
 10
59.6791543695
 20
75.394021707
 10
59.1766849099
 20
75.7874327345
 10
58.7915312031
 20
76.3435482383
 10
58.5368035532
 20
77.0434268994
 10
58.4211815769
 20
77.8632387988
 10
58.448600736
 20
78.7750646929
 10
58.6181258974
 20
79.7478526882
 10
58.9239855771
 20
80.7484771827
 10
59.3557616008
 20
81.7428605303
 10
59.8987552553
 20
82.6971441197
 10
60.5344693422
 20
83.5788265521
 10
61.2412614551
 20
84.3578871636
 10
61.9950604749
 20
85.0077947118
 10
62.7701937025
 20
85.5064154817
 10
63.5402693084
 20
85.8367721441
 10
64.2790587818
 20
85.9876121192
 10
64.9614083566
 20
85.9538016008
 10
65.5640793144
 20
85.7364910686
 10
65.5640793144
 20
85.7364910686
  0
LWPOLYLINE
  5
30D
330
1F
100
AcDbEntity
  8
0
  6
Continuous
 62
     7
370
    15
100
AcDbPolyline
 90
       19
 70
   128
 43
0.0
 10
65.4300391652
 20
85.0056481226
 10
64.8625002399
 20
85.2040403649
 10
64.2169975473
 20
85.2194603836
 10
63.5183345079
 20
85.0513144016
 10
62.7933665667
 20
84.7060676356
 10
62.0699501563
 20
84.196985268
 10
61.3758837576
 20
83.5436298795
 10
60.7378463256
 20
82.7711138242
 10
60.1803488869
 20
81.9091190908
 10
59.724823114
 20
80.9907758957
 10
59.3887704857
 20
80.0513737785
 10
59.185106377
 20
79.1270133622
 10
59.1216569308
 20
78.2532170354
 10
59.20086403
 20
77.4635669903
 10
59.4196772966
 20
76.7884052222
 10
59.7696937026
 20
76.2536802738
 10
60.2374578666
 20
75.879939594
 10
60.8049967919
 20
75.6815477321
 10
61.1344086574
 20
75.6504572365
  0
LWPOLYLINE
  5
30E
330
1F
100
AcDbEntity
  8
0
  6
Continuous
 62
     7
370
    15
100
AcDbPolyline
 90
        3
 70
   128
 43
0.0
 10
66.1340021708
 20
84.3109456047
 10
65.8978033292
 20
84.6319074429
 10
65.4300391652
 20
85.0056481226
  0
LWPOLYLINE
  5
30F
330
1F
100
AcDbEntity
  8
0
  6
Continuous
 62
     7
370
    15
100
AcDbPolyline
 90
        3
 70
   128
 43
0.0
 10
60.0381427858
 20
76.0084094144
 10
60.4514426849
 20
75.8856501736
 10
60.7808545503
 20
75.854559678
  0
LWPOLYLINE
  5
310
330
1F
100
AcDbEntity
  8
0
  6
Continuous
 62
     7
370
    15
100
AcDbPolyline
 90
        3
 70
   128
 43
0.0
 10
65.7804480637
 20
84.5150480463
 10
65.5442492221
 20
84.8360098845
 10
65.2758001389
 20
85.0812816947
  0
ARC
  5
311
330
1F
100
AcDbEntity
  8
0
  6
Continuous
 62
     7
370
    15
100
AcDbCircle
 10
96.1559784895
 20
57.4068364783
 30
0.0
 40
2.664427439174462
100
AcDbArc
 50
183.6447078429
 51
236.5165378847
  0
ARC
  5
312
330
1F
100
AcDbEntity
  8
0
  6
Continuous
 62
     7
370
    15
100
AcDbCircle
 10
99.4517372799
 20
63.0290873949
 30
0.0
 40
2.731349523910074
100
AcDbArc
 50
64.315605383
 51
113.8461306365
  0
LINE
  5
313
330
1F
100
AcDbEntity
  8
0
  6
Continuous
 62
     7
370
    15
100
AcDbLine
 10
41.4519252332
 20
85.8903345821
 30
0.0
 11
41.6006351198
 21
85.7954863429
 31
0.0
  0
LWPOLYLINE
  5
314
330
1F
100
AcDbEntity
  8
0
  6
Continuous
 62
     7
370
    15
100
AcDbPolyline
 90
       32
 70
   128
 43
0.0
 10
61.1570757593
 20
75.8598888698
 10
60.8748156807
 20
76.456001911
 10
60.7306497512
 20
77.1819092076
 10
60.7304864321
 20
78.0078951178
 10
60.8743283577
 20
78.9001426169
 10
61.1562855059
 20
79.8221211413
 10
61.5648175427
 20
80.7360869588
 10
62.0831974376
 20
81.6046215412
 10
62.6902042524
 20
82.392167255
 10
63.3609845174
 20
83.0664809044
 10
64.0680769265
 20
83.5999564608
 10
64.7825371315
 20
83.9707550054
 10
65.4751099513
 20
84.1636935998
 10
66.1174410935
 20
84.1708733148
 10
66.6832388272
 20
83.9920026986
 10
67.1493355565
 20
83.6344033805
 10
67.4966492958
 20
83.1127145405
 10
67.7109607522
 20
82.4482947332
 10
67.7834954784
 20
81.6683457788
 10
67.7112873902
 20
80.8047990322
 10
67.4972894011
 20
79.893008136
 10
67.1502654214
 20
78.9703018704
 10
66.6844189389
 20
78.074455657
 10
66.118824037
 20
77.2421448314
 10
65.4766351404
 20
76.5074458445
 10
64.7841439801
 20
75.9004355785
 10
64.0697048485
 20
75.4459686232
 10
63.3625597558
 20
75.1626454386
 10
62.6916662212
 20
75.062071013
 10
62.0844855507
 20
75.1483583948
 10
61.5658791165
 20
75.4179782243
 10
61.1570757593
 20
75.8598888698
  0
ARC
  5
315
330
1F
100
AcDbEntity
  8
0
  6
Continuous
 62
     7
370
    15
100
AcDbCircle
 10
64.0960231675
 20
83.419023511
 30
0.0
 40
1.791405208582372
100
AcDbArc
 50
60.4323913181
 51
88.5321987705
  0
LWPOLYLINE
  5
316
330
1F
100
AcDbEntity
  8
0
  6
Continuous
 62
     7
370
    15
100
AcDbPolyline
 90
        3
 70
   128
 43
0.0
 10
59.9803989692
 20
76.3166524959
 10
59.7981112152
 20
76.4384889115
 10
59.3893078581
 20
76.880399557
  0
LWPOLYLINE
  5
317
330
1F
100
AcDbEntity
  8
0
  6
Continuous
 62
     7
370
    15
100
AcDbPolyline
 90
       18
 70
   128
 43
0.0
 10
98.5342339129
 20
65.6066899784
 10
98.3518197183
 20
65.6976402055
 10
97.7668846813
 20
65.8355278501
 10
97.1110217665
 20
65.7867650126
 10
96.411083785
 20
65.5533495708
 10
95.6957279594
 20
65.1448386147
 10
94.9942358128
 20
64.5779534968
 10
94.3353304224
 20
63.8759042713
 10
93.7459884055
 20
63.0674342845
 10
93.2503335645
 20
62.1856396596
 10
92.868662241
 20
61.2666237493
 10
92.616595111
 20
60.348008229
 10
92.5044581522
 20
59.4674050045
 10
92.5368374685
 20
58.6608626285
 10
92.7124080686
 20
57.9614028053
 10
93.0239839145
 20
57.3976614395
 10
93.4588076823
 20
56.9927182559
 10
93.5346403994
 20
56.9462012299
  0
LWPOLYLINE
  5
318
330
1F
100
AcDbEntity
  8
0
  6
Continuous
 62
     7
370
    15
100
AcDbPolyline
 90
       23
 70
   128
 43
0.0
 10
141.5396558748
 20
26.9899091999
 10
141.4497566469
 20
27.9923826325
 10
141.5002907183
 20
29.0794170078
 10
141.6900700746
 20
30.2255304664
 10
142.0146508575
 20
31.403861975
 10
142.4664229267
 20
32.5867907143
 10
143.0347942523
 20
33.7465885398
 10
143.7064490643
 20
34.8560743349
 10
144.4656402466
 20
35.8892404157
 10
145.2945712922
 20
36.8218691349
 10
146.1738177724
 20
37.6321033795
 10
147.0827672441
 20
38.3009498615
 10
148.0001171095
 20
38.8127328291
 10
148.9043619393
 20
39.1554543861
 10
149.774309771
 20
39.3210831811
 10
150.5895694327
 20
39.3057365879
 10
151.3310325967
 20
39.1097750053
 10
151.9813176395
 20
38.7377900282
 10
152.5251845239
 20
38.1985017936
 10
152.9498838284
 20
37.504550201
 10
153.2454636283
 20
36.6722019151
 10
153.4049920841
 20
35.7209646002
 10
153.4338297481
 20
35.0595394086
  0
LWPOLYLINE
  5
319
330
1F
100
AcDbEntity
  8
0
  6
Continuous
 62
     7
370
    15
100
AcDbPolyline
 90
       11
 70
   128
 43
0.0
 10
147.442074396
 20
24.6803892577
 10
147.3404636126
 20
24.6227055144
 10
146.4269859889
 20
24.1941958643
 10
145.5372791877
 20
23.939273327
 10
144.6921953624
 20
23.8639116632
 10
143.9115435317
 20
23.9698763299
 10
143.2136206963
 20
24.2546849804
 10
142.614787736
 20
24.7116622571
 10
142.1290795512
 20
25.3300964837
 10
141.7678810595
 20
26.0954929297
 10
141.5396558748
 20
26.9899091999
  0
LWPOLYLINE
  5
31A
330
1F
100
AcDbEntity
  8
0
  6
Continuous
 62
     7
370
    15
100
AcDbPolyline
 90
       41
 70
   128
 43
0.0
 10
141.9606923547
 20
27.0306353331
 10
142.1880140163
 20
26.1478276137
 10
142.5499052969
 20
25.3962532762
 10
143.0374574063
 20
24.7944205419
 10
143.6386663952
 20
24.3571496777
 10
144.3387281832
 20
24.0952064247
 10
145.1204020749
 20
24.0150396052
 10
145.9644427657
 20
24.1186251866
 10
146.8500692251
 20
24.4034130055
 10
147.755470459
 20
24.8623890778
 10
148.6583560529
 20
25.4842519746
 10
149.5364909099
 20
26.2536895807
 10
150.368253697
 20
27.1517547106
 10
151.1331636797
 20
28.156336546
 10
151.8123878023
 20
29.2426974753
 10
152.3891990343
 20
30.384088265
 10
152.8493952049
 20
31.5524027787
 10
153.18164408
 20
32.7188745292
 10
153.3777652199
 20
33.8547800796
 10
153.4329288592
 20
34.9321500581
 10
153.3457783961
 20
35.9244573648
 10
153.1184580516
 20
36.8072662248
 10
152.756566771
 20
37.5588401821
 10
152.2690133445
 20
38.160672156
 10
151.6678043556
 20
38.5979432104
 10
150.9677452018
 20
38.8598876038
 10
150.1860686759
 20
38.9400524273
 10
149.3420279851
 20
38.8364671311
 10
148.4564015257
 20
38.5516795974
 10
147.5510002918
 20
38.0927044281
 10
146.6481146979
 20
37.470841151
 10
145.7699798409
 20
36.7014037826
 10
144.9382170538
 20
35.8033377972
 10
144.1733070711
 20
34.7987565322
 10
143.4940842656
 20
33.7123957928
 10
142.9172730336
 20
32.5710055735
 10
142.457076863
 20
31.4026906795
 10
142.1248279879
 20
30.2362189291
 10
141.9287055309
 20
29.1003126183
 10
141.8735432087
 20
28.0229434002
 10
141.9606923547
 20
27.0306353331
  0
LWPOLYLINE
  5
31B
330
1F
100
AcDbEntity
  8
0
  6
Continuous
 62
     7
370
    15
100
AcDbPolyline
 90
       17
 70
   128
 43
0.0
 10
148.3495724356
 20
32.0215119793
 10
148.2495158172
 20
32.2606595705
 10
148.0586801555
 20
32.3805849845
 10
147.8061204342
 20
32.3630321042
 10
147.5302851158
 20
32.2106711093
 10
147.2731682664
 20
31.9466990218
 10
147.0739137717
 20
31.6113033929
 10
146.9628541917
 20
31.2555434177
 10
146.9569009494
 20
30.9335822393
 10
147.0569575677
 20
30.694434648
 10
147.2477905953
 20
30.5745077134
 10
147.5003503166
 20
30.5920605937
 10
147.776185635
 20
30.7444215886
 10
148.0333024844
 20
31.0083936761
 10
148.2325596133
 20
31.3437908257
 10
148.3436165591
 20
31.6995492802
 10
148.3495724356
 20
32.0215119793
  0
LWPOLYLINE
  5
31C
330
1F
100
AcDbEntity
  8
0
  6
Continuous
 62
     7
370
    15
100
AcDbPolyline
 90
       61
 70
   128
 43
0.0
 10
28.8600168682
 20
95.485352929
 10
28.7238127418
 20
97.0943605664
 10
28.4498239822
 20
98.7580852665
 10
28.0410548694
 20
100.4582978274
 10
27.501983506
 20
102.1763698001
 10
26.8385157193
 20
103.8934783809
 10
26.0579205235
 20
105.5908115408
 10
25.1687510946
 20
107.2497706809
 10
24.1807486231
 20
108.8521808917
 10
23.1047382635
 20
110.3804863822
 10
21.9525086212
 20
111.8179424854
 10
20.7366843235
 20
113.148798728
 10
19.4705857502
 20
114.3584771455
 10
18.1680843183
 20
115.4337212246
 10
16.8434510164
 20
116.3627517835
 10
15.5111986427
 20
117.1353884653
 10
14.1859236304
 20
117.7431699471
 10
12.8821459392
 20
118.1794326808
 10
11.61414977
 20
118.4393998043
 10
10.3958282715
 20
118.5202221212
 10
9.2405291532
 20
118.4210139942
 10
8.1609093111
 20
118.1428627421
 10
7.168798839
 20
117.6888158891
 10
6.2750670138
 20
117.0638475024
 10
5.4895050753
 20
116.2748057084
 10
4.8207202002
 20
115.3303347362
 10
4.2760406718
 20
114.2407825115
 10
3.8614315863
 20
113.0180873407
 10
3.5814382178
 20
111.675643493
 10
3.4391267497
 20
110.2281605096
 10
3.4360579322
 20
108.6914962319
 10
3.5722620587
 20
107.0824885946
 10
3.8462508183
 20
105.4187638945
 10
4.2550199311
 20
103.7185513336
 10
4.7940912944
 20
102.0004793609
 10
5.4575590812
 20
100.28337078
 10
6.238154277
 20
98.5860376201
 10
7.1273237059
 20
96.92707848
 10
8.1153261774
 20
95.3246682692
 10
9.191336537
 20
93.7963627788
 10
10.3435661793
 20
92.3589066756
 10
11.559390477
 20
91.028050433
 10
12.8254890503
 20
89.8183720155
 10
14.1279904822
 20
88.7431279364
 10
15.4526237841
 20
87.8140973774
 10
16.7848761578
 20
87.0414606956
 10
18.1101511701
 20
86.4336792138
 10
19.4139288613
 20
85.9974164802
 10
20.6819250305
 20
85.7374493567
 10
21.900246529
 20
85.6566270397
 10
23.0555456473
 20
85.7558351667
 10
24.1351654894
 20
86.0339864189
 10
25.1272759615
 20
86.4880332718
 10
26.0210077867
 20
87.1130016586
 10
26.8065697252
 20
87.9020434525
 10
27.4753546003
 20
88.8465144248
 10
28.0200341287
 20
89.9360666494
 10
28.4346432142
 20
91.1587618202
 10
28.7146365827
 20
92.501205668
 10
28.8569480508
 20
93.9486886514
 10
28.8600168682
 20
95.485352929
  0
LWPOLYLINE
  5
31D
330
1F
100
AcDbEntity
  8
0
  6
Continuous
 62
     7
370
    15
100
AcDbPolyline
 90
       18
 70
   128
 43
0.0
 10
31.6866703377
 20
95.5680849944
 10
31.6869377068
 20
93.9398826382
 10
31.5468270943
 20
92.4007783415
 10
31.2677306635
 20
90.966068566
 10
30.8524235208
 20
89.6500109203
 10
30.3050321062
 20
88.4656861336
 10
29.6309986313
 20
87.42486326
 10
28.8370191769
 20
86.5378882651
 10
27.9309863989
 20
85.8135745137
 10
26.9219045762
 20
85.2591217725
 10
25.8198020247
 20
84.8800405362
 10
24.6356323151
 20
84.6800972648
 10
23.3811642964
 20
84.6612790112
 10
22.0688652039
 20
84.8237742093
 10
20.7117775116
 20
85.1659654377
 10
19.3233880464
 20
85.6844547878
 10
17.9174956618
 20
86.3740885428
 10
17.5599500655
 20
86.5753423255
  0
LWPOLYLINE
  5
31E
330
1F
100
AcDbEntity
  8
0
  6
Continuous
 62
     7
370
    15
100
AcDbPolyline
 90
       32
 70
   128
 43
0.0
 10
3.4201132526
 20
111.0689122412
 10
3.4901218022
 20
112.6514479805
 10
3.699986766
 20
114.1402055325
 10
4.0476205579
 20
115.5173010856
 10
4.5295684536
 20
116.7690484552
 10
5.1410415172
 20
117.8830067794
 10
5.8759613831
 20
118.8481054295
 10
6.7270247925
 20
119.6547527624
 10
7.6857740584
 20
120.2949315647
 10
8.7426800418
 20
120.7622796704
 10
9.8872389578
 20
121.0521534677
 10
11.108075767
 20
121.1616693549
 10
12.3930564577
 20
121.0897423435
 10
13.7294111932
 20
120.8370841693
 10
15.103858448
 20
120.4062076764
 10
16.502738198
 20
119.8013940347
 10
17.91214791
 20
119.0286553
 10
19.3180801777
 20
118.0956716888
 10
20.7065621684
 20
117.0117125978
 10
22.0637944112
 20
115.787554963
 10
23.3762884329
 20
114.4353627385
 10
24.631000113
 20
112.9685734106
 10
25.8154589236
 20
111.4017671147
 10
26.9178940401
 20
109.7505147449
 10
27.9273479405
 20
108.0312264425
 10
28.8337896747
 20
106.2609896277
 10
29.6282090368
 20
104.4573982852
 10
30.3027113953
 20
102.6383765449
 10
30.8505940842
 20
100.8220030227
 10
31.2664109403
 20
99.0263294559
 10
31.5460289384
 20
97.2692027603
 10
31.6866703377
 20
95.5680849944
  0
LWPOLYLINE
  5
31F
330
1F
100
AcDbEntity
  8
0
  6
Continuous
 62
     7
370
    15
100
AcDbPolyline
 90
       25
 70
   128
 43
0.0
 10
33.6665712301
 20
96.7110574507
 10
33.5259298308
 20
98.4121752166
 10
33.2463118327
 20
100.1693019122
 10
32.8304949765
 20
101.964975479
 10
32.2826122877
 20
103.7813490013
 10
31.6081099292
 20
105.6003707415
 10
30.813690567
 20
107.4039620841
 10
29.9072488328
 20
109.1741988988
 10
28.8977949325
 20
110.8934872012
 10
27.795359816
 20
112.544739571
 10
26.6109010054
 20
114.111545867
 10
25.3561893252
 20
115.5783351948
 10
24.0436953036
 20
116.9305274193
 10
22.6864630607
 20
118.1546850541
 10
21.29798107
 20
119.2386441451
 10
19.8920488023
 20
120.1716277563
 10
18.4826390903
 20
120.944366491
 10
17.0837593404
 20
121.5491801327
 10
15.7093120856
 20
121.9800566256
 10
14.37295735
 20
122.2327147998
 10
13.0879766594
 20
122.3046418112
 10
11.8671398501
 20
122.195125924
 10
10.7225809342
 20
121.9052521267
 10
9.6656749508
 20
121.437904021
 10
9.5429624257
 20
121.3687804983
  0
LWPOLYLINE
  5
320
330
1F
100
AcDbEntity
  8
0
  6
Continuous
 62
     7
370
    15
100
AcDbPolyline
 90
       10
 70
   128
 43
0.0
 10
29.5413364795
 20
86.7268270252
 10
29.9108872912
 20
86.95654697
 10
30.8169200693
 20
87.6808607214
 10
31.6108995237
 20
88.5678357164
 10
32.2849329985
 20
89.6086585899
 10
32.8323244132
 20
90.7929833766
 10
33.2476315559
 20
92.1090410223
 10
33.5267279867
 20
93.5437507979
 10
33.6668385991
 20
95.0828550945
 10
33.6665712301
 20
96.7110574507
  0
LWPOLYLINE
  5
321
330
1F
100
AcDbEntity
  8
0
  6
Continuous
 62
     7
370
    15
100
AcDbPolyline
 90
       17
 70
   128
 43
0.0
 10
23.4221145695
 20
98.3100002426
 10
23.3346282487
 20
98.762172917
 10
23.1206908457
 20
99.2181081411
 10
22.8128713376
 20
99.608394536
 10
22.4580337273
 20
99.8736136437
 10
22.1101977621
 20
99.973389098
 10
21.8223189817
 20
99.8925304886
 10
21.6382241816
 20
99.6433478332
 10
21.5859400282
 20
99.2637771006
 10
21.6734260197
 20
98.8116045925
 10
21.8873640813
 20
98.3556689883
 10
22.1951835894
 20
97.9653826409
 10
22.5500211998
 20
97.7001634381
 10
22.8978571649
 20
97.6003880313
 10
23.1857359453
 20
97.6812466883
 10
23.3698307454
 20
97.9304293021
 10
23.4221145695
 20
98.3100002426
  0
LWPOLYLINE
  5
322
330
1F
100
AcDbEntity
  8
0
  6
Continuous
 62
     7
370
    15
100
AcDbPolyline
 90
       17
 70
   128
 43
0.0
 10
17.3845441937
 20
94.0880535437
 10
17.2970578729
 20
94.5402264557
 10
17.0831200583
 20
94.9961619174
 10
16.7753007971
 20
95.3864480747
 10
16.4204628781
 20
95.6516674557
 10
16.0726270982
 20
95.7514431833
 10
15.7847483178
 20
95.6705842886
 10
15.6006534765
 20
95.4214013719
 10
15.5483693231
 20
95.0418309957
 10
15.6358556851
 20
94.5896580599
 10
15.8497935409
 20
94.1337225745
 10
16.157612766
 20
93.743436438
 10
16.5124507005
 20
93.4782174283
 10
16.8602864598
 20
93.3784420928
 10
17.1481652402
 20
93.459300227
 10
17.3322601226
 20
93.70848312
 10
17.3845441937
 20
94.0880535437
  0
LWPOLYLINE
  5
323
330
1F
100
AcDbEntity
  8
0
  6
Continuous
 62
     7
370
    15
100
AcDbPolyline
 90
       17
 70
   128
 43
0.0
 10
10.7101347723
 20
104.9130720604
 10
10.6226487807
 20
105.3652445684
 10
10.4087107192
 20
105.8211801727
 10
10.1008912111
 20
106.2114665201
 10
9.7460536007
 20
106.4766857229
 10
9.3982176356
 20
106.5764611296
 10
9.1103388552
 20
106.4956024726
 10
8.9262440551
 20
106.2464198589
 10
8.873960231
 20
105.8668489183
 10
8.9614465517
 20
105.4146762439
 10
9.1753839548
 20
104.9587410199
 10
9.4832034629
 20
104.568454625
 10
9.8380410732
 20
104.3032355172
 10
10.1858770384
 20
104.2034600629
 10
10.4737558187
 20
104.2843186724
 10
10.6578506189
 20
104.5335013277
 10
10.7101347723
 20
104.9130720604
  0
LWPOLYLINE
  5
324
330
1F
100
AcDbEntity
  8
0
  6
Continuous
 62
     7
370
    15
100
AcDbPolyline
 90
       17
 70
   128
 43
0.0
 10
16.7477054774
 20
109.1350181653
 10
16.6602191154
 20
109.587191101
 10
16.4462812596
 20
110.0431265864
 10
16.1384620345
 20
110.433412723
 10
15.7836241
 20
110.6986317326
 10
15.4357883407
 20
110.7984070682
 10
15.1479095603
 20
110.717548934
 10
14.9638146778
 20
110.468366041
 10
14.9115306068
 20
110.0887956173
 10
14.9990169276
 20
109.6366227052
 10
15.2129547422
 20
109.1806872436
 10
15.5207740033
 20
108.7904010863
 10
15.8756119224
 20
108.5251817053
 10
16.2234477023
 20
108.4254059777
 10
16.5113264827
 20
108.5062648723
 10
16.695421324
 20
108.7554477891
 10
16.7477054774
 20
109.1350181653
  0
LINE
  5
325
330
1F
100
AcDbEntity
  8
0
  6
Continuous
 62
     7
370
    15
100
AcDbLine
 10
33.6667490371
 20
96.8660650712
 30
0.0
 11
33.6842847602
 21
96.047004171
 31
0.0
  0
ARC
  5
326
330
1F
100
AcDbEntity
  8
0
  6
Continuous
 62
     7
370
    15
100
AcDbCircle
 10
3.1885506657
 20
94.5652358658
 30
0.0
 40
30.56492092243812
100
AcDbArc
 50
4.3171262968
 51
57.3336467865
  0
LWPOLYLINE
  5
327
330
1F
100
AcDbEntity
  8
0
  6
Continuous
 62
     7
370
    15
100
AcDbPolyline
 90
       61
 70
   128
 43
0.0
 10
134.4952079071
 20
29.9081058273
 10
134.7773283743
 20
31.248790924
 10
134.921807771
 20
32.6947516641
 10
134.9270550536
 20
34.2301504983
 10
134.7930175387
 20
35.8381625603
 10
134.521159829
 20
37.5011724351
 10
134.1144743511
 20
39.2009517277
 10
133.5773865238
 20
40.918894988
 10
132.9158179794
 20
42.6361581211
 10
132.1369863658
 20
44.3339454428
 10
131.2494369564
 20
45.9936469467
 10
130.2628951366
 20
47.5970778357
 10
129.188171573
 20
49.1266709106
 10
128.037035773
 20
50.5656704759
 10
126.8221107179
 20
51.8983026738
 10
125.5566937382
 20
53.1099769902
 10
124.2546511471
 20
54.187415523
 10
122.9302496529
 20
55.1188126643
 10
121.5979983082
 20
55.8939658842
 10
120.2725115327
 20
56.5043715372
 10
118.9682878422
 20
56.9433541196
 10
117.6996255552
 20
57.2061012428
 10
116.4804225949
 20
57.2897335776
 10
115.3240395123
 20
57.1933337383
 10
114.2431414354
 20
56.9179607174
 10
113.2495821653
 20
56.4666247787
 10
112.354235589
 20
55.844277556
 10
111.5669113854
 20
55.0577382801
 10
110.8962391217
 20
54.1156215238
 10
110.3495734231
 20
53.0282459379
 10
109.932899142
 20
51.8075277768
 10
109.6507786748
 20
50.4668426801
 10
109.5062992781
 20
49.02088194
 10
109.5010519955
 20
47.4854831058
 10
109.6350895105
 20
45.8774710438
 10
109.9069472201
 20
44.214461169
 10
110.3136432348
 20
42.5146757937
 10
110.8507205253
 20
40.7967386161
 10
111.5122996064
 20
39.0794694003
 10
112.2911206833
 20
37.3816881613
 10
113.1786700927
 20
35.7219866574
 10
114.1652119125
 20
34.1185557684
 10
115.2399354761
 20
32.5889626935
 10
116.3910712761
 20
31.1499631282
 10
117.6059963312
 20
29.8173309303
 10
118.8714238476
 20
28.6056505312
 10
120.1734664387
 20
27.5282119983
 10
121.4978573962
 20
26.5968209398
 10
122.8301087409
 20
25.8216677199
 10
124.1556060531
 20
25.2112559841
 10
125.4598297436
 20
24.7722734018
 10
126.7284920306
 20
24.5095262786
 10
127.9476949909
 20
24.4258939438
 10
129.1040780735
 20
24.5222937831
 10
130.1849656137
 20
24.7976728867
 10
131.1785354205
 20
25.2490027427
 10
132.0738819968
 20
25.8713499653
 10
132.8611956637
 20
26.657895324
 10
133.5318679274
 20
27.6000120803
 10
134.078533626
 20
28.6873876662
 10
134.4952079071
 20
29.9081058273
  0
LWPOLYLINE
  5
328
330
1F
100
AcDbEntity
  8
0
  6
Continuous
 62
     7
370
    15
100
AcDbPolyline
 90
       15
 70
   128
 43
0.0
 10
137.2739970446
 20
29.5078752539
 10
136.8363863165
 20
28.2128658887
 10
136.2675092287
 20
27.0516404276
 10
135.5730239957
 20
26.0357375249
 10
134.7598216271
 20
25.1752590557
 10
133.8359837812
 20
24.478757944
 10
132.8106984709
 20
23.9531522224
 10
131.6941652335
 20
23.6036596234
 10
130.4974581536
 20
23.4337679085
 10
129.2324837158
 20
23.4451565365
 10
127.9118122178
 20
23.6377141384
 10
126.5485724027
 20
24.0095240586
 10
125.1563039457
 20
24.5568962809
 10
123.7488626232
 20
25.2743811073
 10
123.625962413
 20
25.3447367274
  0
LWPOLYLINE
  5
329
330
1F
100
AcDbEntity
  8
0
  6
Continuous
 62
     7
370
    15
100
AcDbPolyline
 90
       37
 70
   128
 43
0.0
 10
109.4861267427
 20
49.8383059834
 10
109.4880338876
 20
50.1051170155
 10
109.5813996938
 20
51.6756921285
 10
109.814366399
 20
53.1468701363
 10
110.1846264631
 20
54.5040250534
 10
110.6884920371
 20
55.7336731466
 10
111.3209687192
 20
56.8235868445
 10
112.0757555558
 20
57.7629426481
 10
112.9453504077
 20
58.5424051715
 10
113.9211237077
 20
59.1542191647
 10
114.9933606073
 20
59.5923159829
 10
116.1514295638
 20
59.8523265295
 10
117.3837928775
 20
59.9316823992
 10
118.6782279624
 20
59.8295809174
 10
120.0218484195
 20
59.5470490205
 10
121.401325308
 20
59.0868809195
 10
122.8029187552
 20
58.4536670002
 10
124.2127203012
 20
57.6536889017
 10
125.6167161188
 20
56.6948967093
 10
127.0009556012
 20
55.5868207556
 10
128.3516672655
 20
54.3404788558
 10
129.6554378774
 20
52.968253129
 10
130.8993072808
 20
51.4837820215
 10
132.0709159124
 20
49.9018188747
 10
133.1586101686
 20
48.238089728
 10
134.1515899195
 20
46.5091252708
 10
135.0399928026
 20
44.7321034344
 10
135.8149679796
 20
42.9246988274
 10
136.4688341874
 20
41.1048622159
 10
136.9950902746
 20
39.2906809801
 10
137.3884889586
 20
37.5001950887
 10
137.6451421926
 20
35.7511870313
 10
137.7624895556
 20
34.0610446942
 10
137.7393509357
 20
32.4465733886
 10
137.5759897509
 20
30.9237993718
 10
137.2739970446
 20
29.5078752539
 10
137.2739970446
 20
29.5078752539
  0
LWPOLYLINE
  5
32A
330
1F
100
AcDbEntity
  8
0
  6
Continuous
 62
     7
370
    15
100
AcDbPolyline
 90
       28
 70
   128
 43
0.0
 10
139.253897937
 20
30.6508477102
 10
139.5558906433
 20
32.0667718281
 10
139.7192518281
 20
33.5895458449
 10
139.7423904479
 20
35.2040171505
 10
139.6250430849
 20
36.8941594876
 10
139.3683898509
 20
38.643167545
 10
138.9749911669
 20
40.4336534364
 10
138.4487350797
 20
42.2478346722
 10
137.7948688719
 20
44.0676712837
 10
137.0198936949
 20
45.8750758907
 10
136.1314908119
 20
47.6520977271
 10
135.138511061
 20
49.3810621843
 10
134.0508168047
 20
51.044791331
 10
132.8792081731
 20
52.6267544779
 10
131.6353387697
 20
54.1112255853
 10
130.3315681579
 20
55.4834513121
 10
128.9808564935
 20
56.7297932119
 10
127.5966170112
 20
57.8378691656
 10
126.1926211936
 20
58.7966613581
 10
124.7828196476
 20
59.5966394565
 10
123.3812262004
 20
60.2298533758
 10
122.0017493119
 20
60.6900214768
 10
120.6581288548
 20
60.9725533737
 10
119.3636937699
 20
61.0746548555
 10
118.1313304562
 20
60.9952989858
 10
116.9732614996
 20
60.7352884392
 10
115.9010246001
 20
60.297191621
 10
115.60897855
 20
60.1381727198
  0
ARC
  5
32B
330
1F
100
AcDbEntity
  8
0
  6
Continuous
 62
     7
370
    15
100
AcDbCircle
 10
131.3049246164
 20
32.4070456396
 30
0.0
 40
8.140663856158307
100
AcDbArc
 50
301.9048842346
 51
347.5415514738
  0
LWPOLYLINE
  5
32C
330
1F
100
AcDbEntity
  8
0
  6
Continuous
 62
     7
370
    15
100
AcDbPolyline
 90
       17
 70
   128
 43
0.0
 10
129.2416032402
 20
34.5921486864
 10
129.2664698808
 20
34.9909748325
 10
129.1525258759
 20
35.4494723131
 10
128.9170935801
 20
35.8978532682
 10
128.5960399616
 20
36.2678417618
 10
128.2382342911
 20
36.5031149883
 10
127.8981513705
 20
36.5678536028
 10
127.6275580663
 20
36.4522061034
 10
127.4676634598
 20
36.1737709016
 10
127.4427968192
 20
35.7749449457
 10
127.5567408241
 20
35.316447465
 10
127.7921625832
 20
34.8680724976
 10
128.1132162017
 20
34.498084004
 10
128.4710218722
 20
34.2628107775
 10
128.8111153295
 20
34.1980660802
 10
129.0817086337
 20
34.3137135796
 10
129.2416032402
 20
34.5921486864
  0
LWPOLYLINE
  5
32D
330
1F
100
AcDbEntity
  8
0
  6
Continuous
 62
     7
370
    15
100
AcDbPolyline
 90
       17
 70
   128
 43
0.0
 10
121.4297059421
 20
33.9409240797
 10
121.4545725827
 20
34.3397496554
 10
121.3406285778
 20
34.7982471361
 10
121.1052068187
 20
35.2466224837
 10
120.7841532002
 20
35.6166107872
 10
120.4263475298
 20
35.8518842038
 10
120.0862540724
 20
35.9166289011
 10
119.815671305
 20
35.8009751288
 10
119.6557661617
 20
35.5225462949
 10
119.6308995211
 20
35.1237199587
 10
119.7448435261
 20
34.6652224781
 10
119.9802758218
 20
34.2168414279
 10
120.3013294404
 20
33.8468531244
 10
120.6591351108
 20
33.6115797079
 10
120.9992180314
 20
33.5468414735
 10
121.2698113356
 20
33.6624884026
 10
121.4297059421
 20
33.9409240797
  0
LWPOLYLINE
  5
32E
330
1F
100
AcDbEntity
  8
0
  6
Continuous
 62
     7
370
    15
100
AcDbPolyline
 90
       17
 70
   128
 43
0.0
 10
116.960454126
 20
45.5418566198
 10
116.9853207666
 20
45.9406825757
 10
116.871366225
 20
46.3991861391
 10
116.6359444659
 20
46.8475611065
 10
116.3148908474
 20
47.2175496001
 10
115.957085177
 20
47.4528228266
 10
115.6169917196
 20
47.5175675239
 10
115.3464089522
 20
47.4019139417
 10
115.1865038089
 20
47.1234849177
 10
115.1616371683
 20
46.7246587716
 10
115.27559171
 20
46.2661552083
 10
115.511013469
 20
45.8177803359
 10
115.8320670876
 20
45.4477918423
 10
116.189872758
 20
45.2125186158
 10
116.5299556786
 20
45.1477800013
 10
116.8005489828
 20
45.2634275007
 10
116.960454126
 20
45.5418566198
  0
LWPOLYLINE
  5
32F
330
1F
100
AcDbEntity
  8
0
  6
Continuous
 62
     7
370
    15
100
AcDbPolyline
 90
       17
 70
   128
 43
0.0
 10
124.7723408874
 20
46.1930873092
 10
124.797207528
 20
46.5919136454
 10
124.6832635231
 20
47.050411126
 10
124.447841764
 20
47.4987860934
 10
124.1267881455
 20
47.868774397
 10
123.768982475
 20
48.1040478135
 10
123.4288890177
 20
48.1687921305
 10
123.1582957135
 20
48.0531452015
 10
122.998401107
 20
47.7747095244
 10
122.9735344664
 20
47.3758839487
 10
123.0874784713
 20
46.917386468
 10
123.3229107671
 20
46.4690050376
 10
123.6439643856
 20
46.0990167341
 10
124.0017700561
 20
45.8637433176
 10
124.3418529767
 20
45.799004703
 10
124.6124462808
 20
45.9146523925
 10
124.7723408874
 20
46.1930873092
  0
ARC
  5
330
330
1F
100
AcDbEntity
  8
0
  6
Continuous
 62
     7
370
    15
100
AcDbCircle
 10
109.5083993188
 20
33.5229993315
 30
0.0
 40
30.26954717652244
100
AcDbArc
 50
2.4489550966
 51
57.5456544908
  0
LWPOLYLINE
  5
331
330
1F
100
AcDbEntity
  8
0
  6
Continuous
 62
     7
370
    15
100
AcDbPolyline
 90
       17
 70
   128
 43
0.0
 10
85.1882156951
 20
80.0381979929
 10
84.9446266671
 20
80.211150111
 10
84.615663929
 20
80.2033033435
 10
84.2514084737
 20
80.0158530016
 10
83.907315017
 20
79.6773363353
 10
83.6357681404
 20
79.2392895623
 10
83.4781073168
 20
78.7683998781
 10
83.4583378107
 20
78.3363576694
 10
83.5794665362
 20
78.0089366103
 10
83.8230555643
 20
77.8359852526
 10
84.1520183023
 20
77.8438312597
 10
84.5162737577
 20
78.0312816016
 10
84.8603672144
 20
78.3697982679
 10
85.131914091
 20
78.8078458014
 10
85.2895749145
 20
79.2787354855
 10
85.3093444207
 20
79.7107769338
 10
85.1882156951
 20
80.0381979929
  0
ARC
  5
332
330
1F
100
AcDbEntity
  8
0
  6
Continuous
 62
     7
370
    15
100
AcDbCircle
 10
53.5213772475
 20
99.051094797
 30
0.0
 40
1.081640395839193
100
AcDbArc
 50
25.1882230106
 51
94.8170642885
  0
LINE
  5
333
330
1F
100
AcDbEntity
  8
0
  6
Continuous
 62
     7
370
    15
100
AcDbLine
 10
55.9054203842
 20
98.700200674
 30
0.0
 11
53.4305469029
 21
100.1289147237
 31
0.0
  0
ARC
  5
334
330
1F
100
AcDbEntity
  8
0
  6
Continuous
 62
     7
370
    15
100
AcDbCircle
 10
55.9980568597
 20
97.6030388115
 30
0.0
 40
1.101065696928861
100
AcDbArc
 50
60.5872605019
 51
94.8261977479
  0
LWPOLYLINE
  5
335
330
1F
100
AcDbEntity
  8
0
  6
Continuous
 62
     7
370
    15
100
AcDbPolyline
 90
        9
 70
   128
 43
0.0
 10
52.4375684691
 20
100.9297655521
 10
52.4207545107
 20
100.9392569462
 10
51.9776581069
 20
101.0670327147
 10
51.4636891431
 20
101.0083944998
 10
50.9138742846
 20
100.7673382891
 10
50.3656820799
 20
100.3602918886
 10
49.8564717587
 20
99.8149949999
 10
49.4209433483
 20
99.1686074281
 10
49.2316605346
 20
98.8026029926
  0
LINE
  5
336
330
1F
100
AcDbEntity
  8
0
  6
Continuous
 62
     7
370
    15
100
AcDbLine
 10
52.9244343751
 20
94.9400123049
 30
0.0
 11
51.3167797172
 21
95.8680915842
 31
0.0
  0
LINE
  5
337
330
1F
100
AcDbEntity
  8
0
  6
Continuous
 62
     7
370
    15
100
AcDbLine
 10
51.697525127
 20
94.656585231
 30
0.0
 11
51.4464326428
 21
94.6654841542
 31
0.0
  0
LINE
  5
338
330
1F
100
AcDbEntity
  8
0
  6
Continuous
 62
     7
370
    15
100
AcDbLine
 10
53.1027748133
 20
93.8453518546
 30
0.0
 11
51.697525127
 21
94.656585231
 31
0.0
  0
ARC
  5
339
330
1F
100
AcDbEntity
  8
0
  6
Continuous
 62
     7
370
    15
100
AcDbCircle
 10
54.495825652
 20
94.6465003679
 30
0.0
 40
1.598568047373127
100
AcDbArc
 50
169.4199384945
 51
233.2351702675
  0
LINE
  5
33A
330
1F
100
AcDbEntity
  8
0
  6
Continuous
 62
     7
370
    15
100
AcDbLine
 10
51.4288126259
 20
95.0252440711
 30
0.0
 11
51.697525127
 21
94.656585231
 31
0.0
  0
LWPOLYLINE
  5
33B
330
1F
100
AcDbEntity
  8
0
  6
Continuous
 62
     7
370
    15
100
AcDbPolyline
 90
       10
 70
   128
 43
0.0
 10
140.1038549916
 20
34.8572144478
 10
140.0335751217
 20
33.2717619276
 10
139.8234520085
 20
31.7831994101
 10
139.4755613842
 20
30.4063281694
 10
138.9933592904
 20
29.1548328695
 10
138.3816504678
 20
28.0411441073
 10
137.6465040626
 20
27.0763366931
 10
136.7952220164
 20
26.2700011296
 10
135.8362758457
 20
25.6301451252
 10
135.782570224
 20
25.6009717712
  0
LWPOLYLINE
  5
33C
330
1F
100
AcDbEntity
  8
0
  6
Continuous
 62
     7
370
    15
100
AcDbPolyline
 90
       25
 70
   128
 43
0.0
 10
115.787315037
 20
60.2375171248
 10
116.6040682776
 20
60.6678918043
 10
117.7063348067
 20
61.046638072
 10
118.8906507131
 20
61.2462383885
 10
120.1452359527
 20
61.2647152053
 10
121.4576361318
 20
61.1018741961
 10
122.814796264
 20
60.7593445685
 10
124.2032293578
 20
60.240525847
 10
125.609142857
 20
59.5505741967
 10
127.0185650813
 20
58.6963431191
 10
128.4174716669
 20
57.6863347943
 10
129.791985764
 20
56.5305693002
 10
131.1284201834
 20
55.2405511559
 10
132.4135092047
 20
53.8290898747
 10
133.6344823326
 20
52.3102132776
 10
134.7791907382
 20
50.6990245386
 10
135.8362758457
 20
49.011525773
 10
136.7952220164
 20
47.2644940868
 10
137.6465040626
 20
45.4752891936
 10
138.3816504678
 20
43.661699807
 10
138.9933592904
 20
41.8417470715
 10
139.4755613842
 20
40.0335130845
 10
139.8234520085
 20
38.2549758787
 10
140.0335751217
 20
36.5238103786
 10
140.1038549916
 20
34.8572144478
  0
SPLINE
  5
33D
330
1F
100
AcDbEntity
  8
0
  6
Continuous
 62
     7
370
    15
100
AcDbSpline
210
0.0
220
0.0
230
1.0
 70
    11
 71
     3
 72
    26
 73
    22
 74
     0
 42
0.000000001
 43
0.00000001
 40
0.0
 40
0.0
 40
0.0
 40
0.0
 40
0.0751731615886136
 40
0.1425824792675576
 40
0.1925165893666909
 40
0.2339906303334452
 40
0.2756138374909403
 40
0.3140663419406134
 40
0.3554825958440767
 40
0.4049587017115385
 40
0.4648643655288721
 40
0.5321646814498142
 40
0.5983291268921077
 40
0.6571668858559827
 40
0.7090963633467057
 40
0.7570947535385915
 40
0.803515447949024
 40
0.8499272272352836
 40
0.8977193085197847
 40
0.9485248343360188
 40
1.0
 40
1.0
 40
1.0
 40
1.0
 10
157.6192462470603
 20
38.99078974488045
 30
0.0
 10
157.4110482146776
 20
38.74138287052163
 30
0.0
 10
157.0161547313065
 20
38.26832773034995
 30
0.0
 10
156.1219115518281
 20
37.56386858022552
 30
0.0
 10
155.300895579356
 20
37.00020872987415
 30
0.0
 10
154.608619859179
 20
36.56686262510152
 30
0.0
 10
154.0601773711791
 20
36.24967824075397
 30
0.0
 10
153.6661982561995
 20
36.05101689125729
 30
0.0
 10
153.4199210508353
 20
35.97327695471228
 30
0.0
 10
153.331260217268
 20
36.04757531423959
 30
0.0
 10
153.4543048601597
 20
36.34408776049543
 30
0.0
 10
153.8355561676477
 20
36.9118696191899
 30
0.0
 10
154.4539003582089
 20
37.68806317595253
 30
0.0
 10
155.1997274392783
 20
38.48685880450387
 30
0.0
 10
155.9499827328439
 20
39.14871956039021
 30
0.0
 10
156.6353769383122
 20
39.61537077332694
 30
0.0
 10
157.2140534817335
 20
39.87401145750998
 30
0.0
 10
157.6454409597935
 20
39.92441690528516
 30
0.0
 10
157.8816687262793
 20
39.77403550793154
 30
0.0
 10
157.8983801200696
 20
39.45350198702926
 30
0.0
 10
157.7126961007599
 20
39.14569889606174
 30
0.0
 10
157.6192462470603
 20
38.99078974488045
 30
0.0
  0
LWPOLYLINE
  5
33E
330
1F
100
AcDbEntity
  8
0
  6
Continuous
 62
     7
370
    15
100
AcDbPolyline
 90
       25
 70
   128
 43
0.0
 10
173.2671642752
 20
54.0019853893
 10
173.1968844053
 20
55.6685813201
 10
172.986761292
 20
57.3997468202
 10
172.6388706677
 20
59.178284026
 10
172.1566685739
 20
60.986518013
 10
171.5449597513
 20
62.8064707485
 10
170.8098133462
 20
64.6200601351
 10
169.9585313
 20
66.4092650283
 10
168.9995851292
 20
68.1562967145
 10
167.9425000217
 20
69.8437954801
 10
166.7977916162
 20
71.4549842191
 10
165.5768184882
 20
72.9738608162
 10
164.291729467
 20
74.3853220974
 10
162.9552950476
 20
75.6753402416
 10
161.5807809505
 20
76.8311057358
 10
160.1818743649
 20
77.8411140606
 10
158.7724521405
 20
78.6953451382
 10
157.3665386413
 20
79.3852967885
 10
155.9781055475
 20
79.90411551
 10
154.6209454153
 20
80.2466451376
 10
153.3085452363
 20
80.4094861467
 10
152.0539599967
 20
80.39100933
 10
150.8696440902
 20
80.1914090135
 10
149.7673775611
 20
79.8126627458
 10
149.1258393065
 20
79.4870445822
  0
LWPOLYLINE
  5
33F
330
1F
100
AcDbEntity
  8
0
  6
Continuous
 62
     7
370
    15
100
AcDbPolyline
 90
        9
 70
   128
 43
0.0
 10
169.1242133603
 20
44.8450911092
 10
169.9585313
 20
45.4147720711
 10
170.8098133462
 20
46.2211076346
 10
171.5449597513
 20
47.1859150487
 10
172.1566685739
 20
48.2996038109
 10
172.6388706677
 20
49.5510991109
 10
172.986761292
 20
50.9279703516
 10
173.1968844053
 20
52.4165328691
 10
173.2671642752
 20
54.0019853893
  0
SPLINE
  5
340
330
1F
100
AcDbEntity
  8
0
  6
Continuous
 62
     7
370
    15
100
AcDbSpline
210
0.0
220
0.0
230
1.0
 70
     8
 71
     3
 72
    26
 73
    22
 74
     0
 42
0.000000001
 43
0.00000001
 40
0.0
 40
0.0
 40
0.0
 40
0.0
 40
0.0752080300953561
 40
0.1410266497445742
 40
0.2085536062893091
 40
0.26303768416367
 40
0.3190116232597145
 40
0.3735515074246596
 40
0.4300079387312393
 40
0.4796689408946242
 40
0.5307967626843445
 40
0.580128597476232
 40
0.630813060355715
 40
0.6815489844859725
 40
0.7337188216553961
 40
0.7850878320002215
 40
0.8379444064880907
 40
0.8893370621927056
 40
0.9422463404660524
 40
0.9931159094186245
 40
1.0
 40
1.0
 40
1.0
 40
1.0
 10
138.3969181636568
 20
27.12091871216404
 30
0.0
 10
138.4787694611343
 20
27.18005761040612
 30
0.0
 10
138.6322532612799
 20
27.29095216086955
 30
0.0
 10
139.0198790232687
 20
27.81188805811962
 30
0.0
 10
139.4559756001788
 20
28.49783710114644
 30
0.0
 10
139.9628798101156
 20
29.36413980771954
 30
0.0
 10
140.5139917739107
 20
30.33444566841522
 30
0.0
 10
141.1582519463617
 20
31.46018350216725
 30
0.0
 10
141.8629675348393
 20
32.64028867645951
 30
0.0
 10
142.6291711786129
 20
33.83149948241753
 30
0.0
 10
143.4267733026851
 20
34.95674688733356
 30
0.0
 10
144.2898452264396
 20
36.03163846357848
 30
0.0
 10
145.2024692112975
 20
37.00767504032036
 30
0.0
 10
146.1732528215687
 20
37.8673649586939
 30
0.0
 10
147.1726200184147
 20
38.56465683702611
 30
0.0
 10
148.1859325996369
 20
39.08003610189178
 30
0.0
 10
149.1626803198748
 20
39.38665572356778
 30
0.0
 10
150.0866990528532
 20
39.48916878361386
 30
0.0
 10
150.8743302090787
 20
39.3708189534108
 30
0.0
 10
151.3830486745705
 20
39.19278191558148
 30
0.0
 10
151.5543892394295
 20
39.02007637094767
 30
0.0
 10
151.5748126026981
 20
38.99949030553191
 30
0.0
  0
SPLINE
  5
341
330
1F
100
AcDbEntity
  8
0
  6
Continuous
 62
     7
370
    15
100
AcDbSpline
210
0.0
220
0.0
230
1.0
 70
     8
 71
     3
 72
    20
 73
    16
 74
     0
 42
0.000000001
 43
0.00000001
 40
0.0
 40
0.0
 40
0.0
 40
0.0
 40
0.1259727619872082
 40
0.2577223394424091
 40
0.3186471619975728
 40
0.3804626399945729
 40
0.4316450965538807
 40
0.4841801469997395
 40
0.5354442870926204
 40
0.5884420489958133
 40
0.655548493959838
 40
0.7244741333549812
 40
0.8435305567296474
 40
0.965673842185564
 40
1.0
 40
1.0
 40
1.0
 40
1.0
 10
144.8597462073647
 20
77.02174703043903
 30
0.0
 10
144.8256901598494
 20
76.97674528651618
 30
0.0
 10
144.7560163343386
 20
76.88467812421992
 30
0.0
 10
144.4332586401192
 20
76.3983789827283
 30
0.0
 10
143.971570359648
 20
75.87690834265807
 30
0.0
 10
143.5276166803254
 20
75.45585172624337
 30
0.0
 10
142.9602304138498
 20
75.0095634448481
 30
0.0
 10
142.2851880817065
 20
74.56317134260047
 30
0.0
 10
141.4612539074772
 20
74.10041314145872
 30
0.0
 10
140.4417359186662
 20
73.59931543675825
 30
0.0
 10
139.2275271173238
 20
73.05999215361267
 30
0.0
 10
137.540740381947
 20
72.34594734869023
 30
0.0
 10
135.5061063838068
 20
71.45119061010612
 30
0.0
 10
133.735778527035
 20
70.6205495544845
 30
0.0
 10
132.8392634098349
 20
70.06473104524815
 30
0.0
 10
132.6425865459512
 20
69.94279596664455
 30
0.0
  0
SPLINE
  5
342
330
1F
100
AcDbEntity
  8
0
  6
Continuous
 62
     7
370
    15
100
AcDbSpline
210
0.0
220
0.0
230
1.0
 70
    11
 71
     3
 72
    47
 73
    43
 74
     0
 42
0.000000001
 43
0.00000001
 40
0.0
 40
0.0
 40
0.0
 40
0.0
 40
0.0219565660977878
 40
0.043910194069938
 40
0.0658446636517755
 40
0.0877878293666623
 40
0.1101845519717562
 40
0.132588731915868
 40
0.1573354525985225
 40
0.1820783507687435
 40
0.2077060109868975
 40
0.2333240098678228
 40
0.257212533313826
 40
0.2811071540398155
 40
0.3047118677403861
 40
0.3283219642312329
 40
0.3536588972619258
 40
0.3789861682560001
 40
0.4042070729129902
 40
0.4294127389947991
 40
0.452032310707191
 40
0.4746560725162219
 40
0.4963206684287891
 40
0.5179981934902947
 40
0.5418901077218063
 40
0.5657984315731593
 40
0.6012697454419585
 40
0.6367631231356197
 40
0.6620252577555167
 40
0.6872439304272678
 40
0.7019622473954484
 40
0.7166557927504005
 40
0.7412921484511977
 40
0.7659135554301294
 40
0.7858905644826429
 40
0.8059163439832426
 40
0.8404500410891786
 40
0.8750100762103293
 40
0.9106828486707431
 40
0.9462925293004003
 40
0.9731614948730966
 40
1.0
 40
1.0
 40
1.0
 40
1.0
 10
171.3331652932799
 20
57.48670608863122
 30
0.0
 10
171.4126645088717
 20
56.92732253165126
 30
0.0
 10
171.5716523018396
 20
55.80863027179932
 30
0.0
 10
171.4230151677404
 20
54.08160913204605
 30
0.0
 10
170.9846999073761
 20
52.37549171024622
 30
0.0
 10
170.2690713836369
 20
50.70878639004755
 30
0.0
 10
169.3077513859358
 20
49.1159102176601
 30
0.0
 10
168.1119673970724
 20
47.56240005371103
 30
0.0
 10
166.7160439896044
 20
46.08897709558169
 30
0.0
 10
165.1546409360465
 20
44.7045546886918
 30
0.0
 10
163.5410189754186
 20
43.48436653015455
 30
0.0
 10
161.9797149445327
 20
42.47845564109982
 30
0.0
 10
160.556494168895
 20
41.71971656923435
 30
0.0
 10
159.2927216546843
 20
41.20900790366646
 30
0.0
 10
158.1772539285586
 20
40.95319362971959
 30
0.0
 10
157.1736542782336
 20
40.95840938257103
 30
0.0
 10
156.2830064562779
 20
41.27324432308284
 30
0.0
 10
155.4964358336911
 20
41.92770972884455
 30
0.0
 10
154.8240586462638
 20
42.93808454588321
 30
0.0
 10
154.270816593832
 20
44.23025919941544
 30
0.0
 10
153.8213613863602
 20
45.75058671352173
 30
0.0
 10
153.4634948224735
 20
47.38191160060106
 30
0.0
 10
153.1747260445876
 20
49.12505790615274
 30
0.0
 10
152.9397125812697
 20
50.97836895640399
 30
0.0
 10
152.7574979472936
 20
52.93159384321245
 30
0.0
 10
152.6155134132329
 20
55.2661855487473
 30
0.0
 10
152.5567562496229
 20
57.8684053640444
 30
0.0
 10
152.6681164074895
 20
60.37354969822382
 30
0.0
 10
152.9414862816908
 20
62.4695189177494
 30
0.0
 10
153.3344899735107
 20
63.94443931620826
 30
0.0
 10
153.8497249479219
 20
65.060708270928
 30
0.0
 10
154.5375762265524
 20
66.04393851326768
 30
0.0
 10
155.7129098586013
 20
66.93081003536264
 30
0.0
 10
157.3808217472642
 20
67.341636657196
 30
0.0
 10
159.0426913534989
 20
67.34424005864584
 30
0.0
 10
160.9790307309342
 20
67.05241778519195
 30
0.0
 10
163.2431446934274
 20
66.33930331626014
 30
0.0
 10
165.7234510137101
 20
65.06691711609375
 30
0.0
 10
167.9533156647188
 20
63.39098611354567
 30
0.0
 10
169.6451842926518
 20
61.47660932140946
 30
0.0
 10
170.7978792384734
 20
59.48139973936521
 30
0.0
 10
171.154804085549
 20
58.15135252468829
 30
0.0
 10
171.3331652932799
 20
57.4867060886312
 30
0.0
  0
ARC
  5
343
330
1F
100
AcDbEntity
  8
0
  6
Continuous
 62
     7
370
    15
100
AcDbCircle
 10
143.0392979047
 20
52.8799760601
 30
0.0
 40
30.25875405490645
100
AcDbArc
 50
2.5892078362
 51
57.4054213116
  0
LWPOLYLINE
  5
344
330
1F
100
AcDbEntity
  8
0
  6
Continuous
 62
     7
370
    15
100
AcDbPolyline
 90
       10
 70
   128
 43
0.0
 10
34.0378362331
 20
96.0878237469
 10
33.9675616316
 20
94.5023681854
 10
33.75743325
 20
93.0138087092
 10
33.4095413086
 20
91.6369382289
 10
32.927341849
 20
90.3854414082
 10
32.3156290751
 20
89.271754927
 10
31.5804813529
 20
88.3069482733
 10
30.7292052336
 20
87.5006092882
 10
29.7702603799
 20
86.8607525235
 10
29.7165494898
 20
86.8315822108
  0
LWPOLYLINE
  5
345
330
1F
100
AcDbEntity
  8
0
  6
Continuous
 62
     7
370
    15
100
AcDbPolyline
 90
       25
 70
   128
 43
0.0
 10
9.7212989127
 20
121.4681249033
 10
10.5380501776
 20
121.8985007233
 10
11.6403186823
 20
122.2772458505
 10
12.8246332717
 20
122.4768469273
 10
14.0792231211
 20
122.4953210828
 10
15.3916196782
 20
122.3324821646
 10
16.7487798104
 20
121.989952537
 10
18.1372153737
 20
121.4711323899
 10
19.5431277205
 20
120.7811814049
 10
20.9525440179
 20
119.9269537488
 10
22.3514570244
 20
118.9169417173
 10
23.7259637128
 20
117.7611805001
 10
25.0624034006
 20
116.4711593145
 10
26.3474937389
 20
115.059697273
 10
27.5684635741
 20
113.5408225767
 10
28.7131785651
 20
111.929630036
 10
29.7702603799
 20
110.2421331713
 10
30.7292052336
 20
108.4951022454
 10
31.5804813529
 20
106.7059007738
 10
32.3156290751
 20
104.8923106268
 10
32.927341849
 20
103.0723556102
 10
33.4095413086
 20
101.264123144
 10
33.75743325
 20
99.4855851778
 10
33.9675616316
 20
97.7544166363
 10
34.0378362331
 20
96.0878237469
  0
SPLINE
  5
346
330
1F
100
AcDbEntity
  8
0
  6
Continuous
 62
     7
370
    15
100
AcDbSpline
210
0.0
220
0.0
230
1.0
 70
     8
 71
     3
 72
    13
 73
     9
 74
     0
 42
0.000000001
 43
0.00000001
 40
0.0
 40
0.0
 40
0.0
 40
0.0
 40
0.1710495552120704
 40
0.3705557746646966
 40
0.554959228311122
 40
0.7333013268648978
 40
0.9116095624675663
 40
1.0
 40
1.0
 40
1.0
 40
1.0
 10
48.6246313292788
 20
99.15303291171138
 30
0.0
 10
48.80411032441489
 20
99.34956354744612
 30
0.0
 10
49.19292734294639
 20
99.77532064386035
 30
0.0
 10
49.88564433077292
 20
100.3793556441346
 30
0.0
 10
50.57068262559264
 20
100.8474598143906
 30
0.0
 10
51.14138681753269
 20
101.098871912524
 30
0.0
 10
51.52338484599006
 20
101.1631280852543
 30
0.0
 10
51.62193623167183
 20
101.0819742656544
 30
0.0
 10
51.65459856177434
 20
101.0550779127872
 30
0.0
  0
LWPOLYLINE
  5
347
330
1F
100
AcDbEntity
  8
0
  6
Continuous
 62
     7
370
    15
100
AcDbPolyline
 90
       25
 70
   128
 43
0.0
 10
67.2011455167
 20
115.2325946884
 10
67.1308709152
 20
116.8991875778
 10
66.9207425336
 20
118.6303561193
 10
66.5728505921
 20
120.4088940854
 10
66.0906511325
 20
122.2171265517
 10
65.4789383587
 20
124.0370815682
 10
64.7437906364
 20
125.8506717153
 10
63.8925145171
 20
127.6398731869
 10
62.9335696634
 20
129.3869041127
 10
61.8764878487
 20
131.0744009775
 10
60.7317728577
 20
132.6855935182
 10
59.5108030225
 20
134.2044682144
 10
58.2257126841
 20
135.615930256
 10
56.8892729963
 20
136.9059514416
 10
55.5147663079
 20
138.0617126588
 10
54.1158533015
 20
139.0717246903
 10
52.706437004
 20
139.9259523464
 10
51.3005246573
 20
140.6159033314
 10
49.9120890939
 20
141.1347234785
 10
48.5549289618
 20
141.4772531061
 10
47.2425324047
 20
141.6400920243
 10
45.9879425553
 20
141.6216178687
 10
44.8036279659
 20
141.422016792
 10
43.7013594612
 20
141.0432716647
 10
43.0598231822
 20
140.7176523607
  0
LWPOLYLINE
  5
348
330
1F
100
AcDbEntity
  8
0
  6
Continuous
 62
     7
370
    15
100
AcDbPolyline
 90
        9
 70
   128
 43
0.0
 10
63.058197236
 20
106.0756988876
 10
63.8925145171
 20
106.6453802297
 10
64.7437906364
 20
107.4517192148
 10
65.4789383587
 20
108.4165258685
 10
66.0906511325
 20
109.5302123497
 10
66.5728505921
 20
110.7817091704
 10
66.9207425336
 20
112.1585796507
 10
67.1308709152
 20
113.6471391268
 10
67.2011455167
 20
115.2325946884
  0
SPLINE
  5
349
330
1F
100
AcDbEntity
  8
0
  6
Continuous
 62
     7
370
    15
100
AcDbSpline
210
0.0
220
0.0
230
1.0
 70
     8
 71
     3
 72
    16
 73
    12
 74
     0
 42
0.000000001
 43
0.00000001
 40
0.0
 40
0.0
 40
0.0
 40
0.0
 40
0.156396843262458
 40
0.2932686096754811
 40
0.4336928714080475
 40
0.5469940892204963
 40
0.6633937353268703
 40
0.7768109169960442
 40
0.8942137649657962
 40
0.997485191292092
 40
1.0
 40
1.0
 40
1.0
 40
1.0
 10
32.33090269789059
 20
88.3515261104262
 30
0.0
 10
32.41275223191646
 20
88.41066641679357
 30
0.0
 10
32.56623294511773
 20
88.52156376652479
 30
0.0
 10
32.95384803593416
 20
89.04250285370505
 30
0.0
 10
33.38999009753434
 20
89.72843207304412
 30
0.0
 10
33.89675171419658
 20
90.5947984929548
 30
0.0
 10
34.44838110647337
 20
91.56487599424537
 30
0.0
 10
35.09074743403524
 20
92.6914342747698
 30
0.0
 10
35.80241862888842
 20
93.86854187699711
 30
0.0
 10
36.30944458366488
 20
94.68845784591021
 30
0.0
 10
36.57960826290238
 20
95.06704897962608
 30
0.0
 10
36.58603074284873
 20
95.07604905680527
 30
0.0
  0
SPLINE
  5
34A
330
1F
100
AcDbEntity
  8
0
  6
Continuous
 62
     7
370
    15
100
AcDbSpline
210
0.0
220
0.0
230
1.0
 70
     8
 71
     3
 72
    20
 73
    16
 74
     0
 42
0.000000001
 43
0.00000001
 40
0.0
 40
0.0
 40
0.0
 40
0.0
 40
0.1259727046207132
 40
0.2577222477490305
 40
0.3186471352683226
 40
0.3804625638998734
 40
0.431645065729305
 40
0.4841801138570824
 40
0.5354442481938269
 40
0.5884419722081371
 40
0.6555484282159943
 40
0.7244740306000638
 40
0.8435303777220585
 40
0.9656738754678663
 40
0.9999999999999999
 40
0.9999999999999999
 40
0.9999999999999999
 40
0.9999999999999999
 10
38.79372679033149
 20
138.2523567097191
 30
0.0
 10
38.7596707805664
 20
138.207355012722
 30
0.0
 10
38.68999702534738
 20
138.1152879372588
 30
0.0
 10
38.36723528911524
 20
137.6289899355558
 30
0.0
 10
37.90555517750117
 20
137.1075164793243
 30
0.0
 10
37.46159552317772
 20
136.6864614968558
 30
0.0
 10
36.89421581448453
 20
136.2401708944061
 30
0.0
 10
36.21917564666412
 20
135.7937768896809
 30
0.0
 10
35.39523393652602
 20
135.331023585647
 30
0.0
 10
34.37572094840727
 20
134.8299218122138
 30
0.0
 10
33.16150926870559
 20
134.2906015468915
 30
0.0
 10
31.47472406909883
 20
133.5765555298371
 30
0.0
 10
29.44008996443198
 20
132.6817941295189
 30
0.0
 10
27.66975761966069
 20
131.8511628890721
 30
0.0
 10
26.77324176356431
 20
131.2953421061173
 30
0.0
 10
26.57656515328445
 20
131.1734067864336
 30
0.0
  0
SPLINE
  5
34B
330
1F
100
AcDbEntity
  8
0
  6
Continuous
 62
     7
370
    15
100
AcDbSpline
210
0.0
220
0.0
230
1.0
 70
    11
 71
     3
 72
   104
 73
   100
 74
     0
 42
0.000000001
 43
0.00000001
 40
0.0
 40
0.0
 40
0.0
 40
0.0
 40
0.03125
 40
0.03125
 40
0.046875
 40
0.046875
 40
0.0624999999999999
 40
0.0624999999999999
 40
0.0781249999999999
 40
0.0781249999999999
 40
0.0937499999999999
 40
0.0937499999999999
 40
0.1249999999999999
 40
0.1249999999999999
 40
0.1406249999999999
 40
0.1406249999999999
 40
0.1562499999999999
 40
0.1562499999999999
 40
0.1718749999999999
 40
0.1718749999999999
 40
0.1874999999999999
 40
0.1874999999999999
 40
0.21875
 40
0.21875
 40
0.2343750000000001
 40
0.2343750000000001
 40
0.2500000000000001
 40
0.2500000000000001
 40
0.2812500000000002
 40
0.2812500000000002
 40
0.3125000000000004
 40
0.3125000000000004
 40
0.3437500000000006
 40
0.3437500000000006
 40
0.3750000000000008
 40
0.3750000000000008
 40
0.3906250000000008
 40
0.3906250000000008
 40
0.4062500000000009
 40
0.4062500000000009
 40
0.4218750000000009
 40
0.4218750000000009
 40
0.4375000000000009
 40
0.4375000000000009
 40
0.4687500000000011
 40
0.4687500000000011
 40
0.4843750000000011
 40
0.4843750000000011
 40
0.5000000000000011
 40
0.5000000000000011
 40
0.5156250000000011
 40
0.5156250000000011
 40
0.5312500000000011
 40
0.5312500000000011
 40
0.5625000000000011
 40
0.5625000000000011
 40
0.5781250000000012
 40
0.5781250000000012
 40
0.5937500000000012
 40
0.5937500000000012
 40
0.6250000000000014
 40
0.6250000000000014
 40
0.6406250000000016
 40
0.6406250000000016
 40
0.6562500000000016
 40
0.6562500000000016
 40
0.6875000000000017
 40
0.6875000000000017
 40
0.7031250000000017
 40
0.7031250000000017
 40
0.7109375000000017
 40
0.7109375000000017
 40
0.7187500000000017
 40
0.7187500000000017
 40
0.7343750000000017
 40
0.7343750000000017
 40
0.7500000000000016
 40
0.7500000000000016
 40
0.7656250000000014
 40
0.7656250000000014
 40
0.7812500000000013
 40
0.7812500000000013
 40
0.7968750000000012
 40
0.7968750000000012
 40
0.8125000000000011
 40
0.8125000000000011
 40
0.843750000000001
 40
0.843750000000001
 40
0.8750000000000008
 40
0.8750000000000008
 40
0.9062500000000007
 40
0.9062500000000007
 40
0.9375000000000006
 40
0.9375000000000006
 40
0.9531250000000003
 40
0.9531250000000003
 40
0.9687500000000002
 40
0.9687500000000002
 40
1.0
 40
1.0
 40
1.0
 40
1.0
 10
65.26714991628016
 20
118.7173136199707
 30
0.0
 10
65.42441697593037
 20
117.9231675069406
 30
0.0
 10
65.47616857959326
 20
117.1207773913976
 30
0.0
 10
65.39772619571016
 20
115.901073265751
 30
0.0
 10
65.34493030353278
 20
115.4894403290405
 30
0.0
 10
65.18783861109165
 20
114.6709033995861
 30
0.0
 10
65.08445544431679
 20
114.2669318425357
 30
0.0
 10
64.83147974274769
 20
113.467999773501
 30
0.0
 10
64.68187793191574
 20
113.0730438855395
 30
0.0
 10
64.33857987112678
 20
112.2907378127555
 30
0.0
 10
64.14353920537275
 20
111.9012145483952
 30
0.0
 10
63.50689665022723
 20
110.7641933512848
 30
0.0
 10
63.01412527269819
 20
110.0446572893956
 30
0.0
 10
62.19065243670635
 20
109.0090156310289
 30
0.0
 10
61.90077900270415
 20
108.6700307818949
 30
0.0
 10
61.3069815621709
 20
108.0183593185965
 30
0.0
 10
61.00190513567692
 20
107.7040572068582
 30
0.0
 10
60.37819108974492
 20
107.0959862064131
 30
0.0
 10
60.05954862277174
 20
106.8022214875649
 30
0.0
 10
59.41081277270654
 20
106.2336155880937
 30
0.0
 10
59.07865050149797
 20
105.9571925413923
 30
0.0
 10
58.08673514127626
 20
105.1702728650277
 30
0.0
 10
57.43093839054707
 20
104.6998529881415
 30
0.0
 10
56.4644448218228
 20
104.0690742509932
 30
0.0
 10
56.14426793220768
 20
103.8709724563251
 30
0.0
 10
55.5137686809565
 20
103.503009486974
 30
0.0
 10
55.20814299682508
 20
103.3358291517269
 30
0.0
 10
54.31849075525445
 20
102.883056516841
 30
0.0
 10
53.76155958189249
 20
102.6454021178816
 30
0.0
 10
52.71020770305385
 20
102.3088167036779
 30
0.0
 10
52.23361745169354
 20
102.2156750028292
 30
0.0
 10
51.35128817150667
 20
102.1837907951282
 30
0.0
 10
50.94298197287305
 20
102.247585825905
 30
0.0
 10
50.20559934419918
 20
102.5421733366077
 30
0.0
 10
49.87232099336597
 20
102.7714165337023
 30
0.0
 10
49.4082455527541
 20
103.2550994661768
 30
0.0
 10
49.26026071140279
 20
103.4396011596167
 30
0.0
 10
48.98124575029504
 20
103.8480679971688
 30
0.0
 10
48.84923690314828
 20
104.0729902981852
 30
0.0
 10
48.59756329842806
 20
104.5652969053155
 30
0.0
 10
48.47790520779786
 20
104.832675442576
 30
0.0
 10
48.2489399387005
 20
105.4122561028418
 30
0.0
 10
48.13914536341048
 20
105.7264840271681
 30
0.0
 10
47.83171789304325
 20
106.7116387140878
 30
0.0
 10
47.65263228159407
 20
107.4309511651233
 30
0.0
 10
47.41217659261758
 20
108.6011912873378
 30
0.0
 10
47.33677494336737
 20
109.0074002867591
 30
0.0
 10
47.1980236317326
 20
109.8288725376655
 30
0.0
 10
47.134121541322
 20
110.2466534716929
 30
0.0
 10
47.01591661576417
 20
111.0953821975688
 30
0.0
 10
46.96161819846522
 20
111.5263327986144
 30
0.0
 10
46.86192327828232
 20
112.4008754645688
 30
0.0
 10
46.8169217066775
 20
112.8412895916213
 30
0.0
 10
46.69660901257789
 20
114.1574307745233
 30
0.0
 10
46.6350175174037
 20
115.0339886956569
 30
0.0
 10
46.57019223716701
 20
116.3479206906999
 30
0.0
 10
46.55338034915115
 20
116.7838588808147
 30
0.0
 10
46.5300120205468
 20
117.6423060954254
 30
0.0
 10
46.52337369572275
 20
118.0663503657097
 30
0.0
 10
46.51982623511184
 20
119.3241360884872
 30
0.0
 10
46.53871599725503
 20
120.1436458475782
 30
0.0
 10
46.61198150990409
 20
121.3467512955041
 30
0.0
 10
46.64416285879636
 20
121.7447183919141
 30
0.0
 10
46.72739414400258
 20
122.5249758624382
 30
0.0
 10
46.77827736207402
 20
122.9065580989934
 30
0.0
 10
46.96676954894003
 20
124.025282954459
 30
0.0
 10
47.13762821734762
 20
124.7379111659217
 30
0.0
 10
47.52715969251312
 20
125.7417953923363
 30
0.0
 10
47.67783359799952
 20
126.0598908248761
 30
0.0
 10
47.9462304189887
 20
126.5078987093244
 30
0.0
 10
48.04280171637475
 20
126.6523545518009
 30
0.0
 10
48.25259095875123
 20
126.9304240219891
 30
0.0
 10
48.366490886755
 20
127.0646987790862
 30
0.0
 10
48.73167421737451
 20
127.443422119799
 30
0.0
 10
49.00572575319846
 20
127.6636482491512
 30
0.0
 10
49.62147072699702
 20
128.0349458076378
 30
0.0
 10
49.96576859913974
 20
128.1856528755065
 30
0.0
 10
50.68673653778837
 20
128.4067520530082
 30
0.0
 10
51.06689649521132
 20
128.4799377304529
 30
0.0
 10
51.85676530627705
 20
128.5621898741815
 30
0.0
 10
52.25650105036355
 20
128.5705137444469
 30
0.0
 10
53.06080971076871
 20
128.5367271235658
 30
0.0
 10
53.46540542591899
 20
128.494496119864
 30
0.0
 10
54.27612922430056
 20
128.3679616434785
 30
0.0
 10
54.68373845242729
 20
128.283122147559
 30
0.0
 10
55.8863246064176
 20
127.9777025713143
 30
0.0
 10
56.66630481593327
 20
127.7069495711949
 30
0.0
 10
58.17817426608514
 20
127.0540567563608
 30
0.0
 10
58.9105528670394
 20
126.6711965973529
 30
0.0
 10
60.31633482953374
 20
125.7921005222449
 30
0.0
 10
60.9730771276223
 20
125.3061806313
 30
0.0
 10
62.18625283905722
 20
124.239951604502
 30
0.0
 10
62.74285405463512
 20
123.6597345447629
 30
0.0
 10
63.48833287729958
 20
122.7071704478208
 30
0.0
 10
63.7229332607003
 20
122.37373870882
 30
0.0
 10
64.14873234288571
 20
121.6915350416519
 30
0.0
 10
64.34095948490624
 20
121.3418502319442
 30
0.0
 10
64.85322176920938
 20
120.2658475824472
 30
0.0
 10
65.10988285662994
 20
119.5114597330007
 30
0.0
 10
65.26714991628015
 20
118.7173136199707
 30
0.0
  0
ARC
  5
34C
330
1F
100
AcDbEntity
  8
0
  6
Continuous
 62
     7
370
    15
100
AcDbCircle
 10
36.9732707403
 20
114.1105761135
 30
0.0
 40
30.25876671408608
100
AcDbArc
 50
2.5892199534
 51
57.405403077
  0
ARC
  5
34D
330
1F
100
AcDbEntity
  8
0
  6
Continuous
 62
     8
370
    15
100
AcDbCircle
 10
64.5403132761
 20
82.9987799428
 30
0.0
 40
2.593546074169342
100
AcDbArc
 50
65.208001744
 51
112.8603339239
  0
ARC
  5
34E
330
1F
100
AcDbEntity
  8
0
  6
Continuous
 62
     8
370
    15
100
AcDbCircle
 10
61.1413266436
 20
77.5671391521
 30
0.0
 40
2.271681033854168
100
AcDbArc
 50
179.6757058977
 51
282.9287475814
  0
ARC
  5
34F
330
1F
100
AcDbEntity
  8
0
  6
Continuous
 62
     8
370
    15
100
AcDbCircle
 10
64.4483152101
 20
83.3949312502
 30
0.0
 40
2.286153037270032
100
AcDbArc
 50
15.6992309498
 51
58.9391153786
  0
ARC
  5
350
330
1F
100
AcDbEntity
  8
0
  6
Continuous
 62
     8
370
    15
100
AcDbCircle
 10
100.0612498972
 20
57.9583699554
 30
0.0
 40
6.603777242497554
100
AcDbArc
 50
159.7309253391
 51
186.2672519326
  0
ARC
  5
351
330
1F
100
AcDbEntity
  8
0
  6
Continuous
 62
     8
370
    15
100
AcDbCircle
 10
102.2706484944
 20
57.6567602014
 30
0.0
 40
8.794092359030701
100
AcDbArc
 50
116.4944775185
 51
162.8759057916
  0
LINE
  5
352
330
1F
100
AcDbEntity
  8
0
  6
Continuous
 62
     8
370
    15
100
AcDbLine
 10
42.8323267182
 20
85.1190868236
 30
0.0
 11
42.4023656431
 21
85.152105402
 31
0.0
  0
LWPOLYLINE
  5
353
330
1F
100
AcDbEntity
  8
0
  6
Continuous
 62
     8
370
    15
100
AcDbPolyline
 90
        3
 70
   128
 43
0.0
 10
47.864299548
 20
95.9547554544
 10
47.7437147802
 20
96.0480614975
 10
47.5839782243
 20
96.1512142657
  0
LINE
  5
354
330
1F
100
AcDbEntity
  8
0
  6
Continuous
 62
     8
370
    15
100
AcDbLine
 10
41.6006351198
 20
85.7954863429
 30
0.0
 11
41.9147819235
 21
85.6487734598
 31
0.0
  0
LWPOLYLINE
  5
355
330
1F
100
AcDbEntity
  8
0
  6
Continuous
 62
     8
370
    15
100
AcDbPolyline
 90
       13
 70
   128
 43
0.0
 10
82.631180884
 20
77.3607701789
 10
82.4589293483
 20
77.4703279795
 10
82.2097545457
 20
77.8121847532
 10
82.0956248312
 20
78.2952354071
 10
82.1266831073
 20
78.8765599849
 10
82.3001687554
 20
79.5045050642
 10
82.6006665656
 20
80.1232738872
 10
83.0014778266
 20
80.6778890131
 10
83.4669858171
 20
81.1190666629
 10
83.955831308
 20
81.4076096161
 10
84.4245753862
 20
81.5178768584
 10
84.8315703801
 20
81.4400729731
 10
84.9462374669
 20
81.3736236126
  0
LWPOLYLINE
  5
356
330
1F
100
AcDbEntity
  8
0
  6
Continuous
 62
     8
370
    15
100
AcDbPolyline
 90
        3
 70
   128
 43
0.0
 10
77.3578831021
 20
79.9322447828
 10
77.6949498889
 20
79.6369619163
 10
77.7394991078
 20
79.6149917655
  0
LWPOLYLINE
  5
357
330
1F
100
AcDbEntity
  8
0
  6
Continuous
 62
     8
370
    15
100
AcDbPolyline
 90
       12
 70
   128
 43
0.0
 10
80.5489685168
 20
84.4816640317
 10
80.2356277716
 20
84.6260825226
 10
79.7574599214
 20
84.6442842026
 10
79.2282772624
 20
84.4731502385
 10
78.687326413
 20
84.1253728758
 10
78.174729856
 20
83.626746673
 10
77.7285014145
 20
83.0142505142
 10
77.3817369013
 20
82.3333105865
 10
77.1601551136
 20
81.6344302395
 10
77.080188054
 20
80.9694418422
 10
77.1477692085
 20
80.3876646589
 10
77.3578831021
 20
79.9322447828
  0
ARC
  5
358
330
1F
100
AcDbEntity
  8
0
  6
Continuous
 62
     8
370
    15
100
AcDbCircle
 10
78.4861395622
 20
82.4274502706
 30
0.0
 40
2.925541768721613
100
AcDbArc
 50
106.3203165454
 51
193.5592821973
  0
LWPOLYLINE
  5
359
330
1F
100
AcDbEntity
  8
0
  6
Continuous
 62
     8
370
    15
100
AcDbPolyline
 90
       11
 70
   128
 43
0.0
 10
74.4419415341
 20
83.0308996921
 10
74.3937808571
 20
83.062456577
 10
74.1951071987
 20
83.3350266403
 10
74.1309952567
 20
83.742001977
 10
74.2101048913
 20
84.2284208399
 10
74.4217505595
 20
84.7285870822
 10
74.7373487953
 20
85.1749522276
 10
75.1142759641
 20
85.5072315382
 10
75.5016265753
 20
85.6805487916
 10
75.8470858533
 20
85.6714965257
 10
75.9407901513
 20
85.6296402207
  0
LWPOLYLINE
  5
35A
330
1F
100
AcDbEntity
  8
0
  6
Continuous
 62
     8
370
    15
100
AcDbPolyline
 90
       11
 70
   128
 43
0.0
 10
70.9059803118
 20
85.0721667365
 10
70.8582476888
 20
85.1034764308
 10
70.6595740303
 20
85.3760464941
 10
70.5954620883
 20
85.7830218308
 10
70.6745717229
 20
86.2694406937
 10
70.8862173911
 20
86.7696069359
 10
71.2018156269
 20
87.2159720813
 10
71.5787427957
 20
87.5482513919
 10
71.9660934069
 20
87.7215686454
 10
72.3115526849
 20
87.7125163795
 10
72.4058588926
 20
87.6703132469
  0
ARC
  5
35B
330
1F
100
AcDbEntity
  8
0
  6
Continuous
 62
     8
370
    15
100
AcDbCircle
 10
68.9380097868
 20
86.2881045484
 30
0.0
 40
0.8493656504488104
100
AcDbArc
 50
217.2802878384
 51
281.6873157512
  0
LWPOLYLINE
  5
35C
330
1F
100
AcDbEntity
  8
0
  6
Continuous
 62
     8
370
    15
100
AcDbPolyline
 90
       14
 70
   128
 43
0.0
 10
71.1746993983
 20
89.0343803014
 10
71.1505268636
 20
89.0936416404
 10
70.9049687874
 20
89.430533773
 10
70.5481443483
 20
89.5983474221
 10
70.111758513
 20
89.5821703577
 10
69.6345863821
 20
89.3834411592
 10
69.1590263682
 20
89.0198172187
 10
68.7273346382
 20
88.52360778
 10
68.3778674583
 20
87.9389031639
 10
68.1416791534
 20
87.317658323
 10
68.0397535858
 20
86.7150725293
 10
68.0811483764
 20
86.1846876039
 10
68.2621848959
 20
85.7736312984
 10
68.2621848959
 20
85.7736312984
  0
LWPOLYLINE
  5
35D
330
1F
100
AcDbEntity
  8
0
  6
Continuous
 62
     8
370
    15
100
AcDbPolyline
 90
       14
 70
   128
 43
0.0
 10
66.3314232776
 20
85.980999515
 10
66.0065606376
 20
86.2767854232
 10
65.7889090436
 20
86.7391551166
 10
65.710467173
 20
87.3269037131
 10
65.7765810904
 20
87.9999763703
 10
65.982743717
 20
88.7125039103
 10
66.3149069813
 20
89.4159298143
 10
66.7504353917
 20
90.0623173862
 10
67.2596457129
 20
90.6076142748
 10
67.8078379176
 20
91.0146606753
 10
68.3576527761
 20
91.255716886
 10
68.8716217399
 20
91.3143551009
 10
69.3147181437
 20
91.1865793325
 10
69.3324145517
 20
91.1765783454
  0
LWPOLYLINE
  5
35E
330
1F
100
AcDbEntity
  8
0
  6
Continuous
 62
     8
370
    15
100
AcDbPolyline
 90
       11
 70
   128
 43
0.0
 10
113.2592232569
 20
65.1278922369
 10
112.7054874245
 20
64.8159844468
 10
112.1688829689
 20
64.3482044913
 10
111.6859749153
 20
63.7564286846
 10
111.2896760013
 20
63.0809877493
 10
111.0069905029
 20
62.3679107308
 10
110.8571847982
 20
61.6657924419
 10
110.8504676443
 20
61.0224825313
 10
110.9872960709
 20
60.4818193602
 10
111.2583464049
 20
60.0806497516
 10
111.4569660627
 20
59.9305773373
  0
ARC
  5
35F
330
1F
100
AcDbEntity
  8
0
  6
Continuous
 62
     8
370
    15
100
AcDbCircle
 10
113.8569787159
 20
63.9627093167
 30
0.0
 40
1.30956589230902
100
AcDbArc
 50
62.7437433392
 51
117.1584706309
  0
ARC
  5
360
330
1F
100
AcDbEntity
  8
0
  6
Continuous
 62
     8
370
    15
100
AcDbCircle
 10
112.5575285664
 20
62.7590864304
 30
0.0
 40
3.022631365002421
100
AcDbArc
 50
106.8705977714
 51
193.1042518012
  0
LWPOLYLINE
  5
361
330
1F
100
AcDbEntity
  8
0
  6
Continuous
 62
     8
370
    15
100
AcDbPolyline
 90
        8
 70
   128
 43
0.0
 10
109.2837652351
 20
66.0360109992
 10
108.8943138668
 20
65.792389909
 10
108.5370403004
 20
65.4061546726
 10
108.2601987259
 20
64.9294692769
 10
108.1011747152
 20
64.4267125232
 10
108.081448673
 20
63.9657848879
 10
108.2036824363
 20
63.6089360927
 10
108.3808335431
 20
63.438399355
  0
LWPOLYLINE
  5
362
330
1F
100
AcDbEntity
  8
0
  6
Continuous
 62
     8
370
    15
100
AcDbPolyline
 90
        3
 70
   128
 43
0.0
 10
109.8840970427
 20
66.0345820326
 10
109.6527977723
 20
66.1041161281
 10
109.2837652351
 20
66.0360109992
  0
LWPOLYLINE
  5
363
330
1F
100
AcDbEntity
  8
0
  6
Continuous
 62
     8
370
    15
100
AcDbPolyline
 90
        8
 70
   128
 43
0.0
 10
105.7482347009
 20
68.0770293322
 10
105.3587833327
 20
67.8334082421
 10
105.0015097662
 20
67.4471730057
 10
104.7246681917
 20
66.97048761
 10
104.5656441811
 20
66.4677308563
 10
104.5459181389
 20
66.006803221
 10
104.6681519021
 20
65.6499544258
 10
104.8471061038
 20
65.4783718824
  0
LWPOLYLINE
  5
364
330
1F
100
AcDbEntity
  8
0
  6
Continuous
 62
     8
370
    15
100
AcDbPolyline
 90
        3
 70
   128
 43
0.0
 10
106.3469846846
 20
68.0765183929
 10
106.1172672381
 20
68.1451344612
 10
105.7482347009
 20
68.0770293322
  0
LWPOLYLINE
  5
365
330
1F
100
AcDbEntity
  8
0
  6
Continuous
 62
     8
370
    15
100
AcDbPolyline
 90
       11
 70
   128
 43
0.0
 10
103.9254203813
 20
69.7723062788
 10
103.4626809119
 20
69.5016621725
 10
103.0213955054
 20
69.0860550959
 10
102.640773902
 20
68.56241325
 10
102.3546363132
 20
67.9772646649
 10
102.1884091427
 20
67.3826043653
 10
102.1568595924
 20
66.8312679272
 10
102.262793062
 20
66.3722456279
 10
102.4967963162
 20
66.0463227358
 10
102.8380764707
 20
65.882459629
 10
103.1361152758
 20
65.8739304485
  0
ARC
  5
366
330
1F
100
AcDbEntity
  8
0
  6
Continuous
 62
     8
370
    15
100
AcDbCircle
 10
104.3546837146
 20
69.0245407166
 30
0.0
 40
0.8622182701877529
100
AcDbArc
 50
23.2404866233
 51
119.8584692833
  0
LWPOLYLINE
  5
367
330
1F
100
AcDbEntity
  8
0
  6
Continuous
 62
     8
370
    15
100
AcDbPolyline
 90
       13
 70
   128
 43
0.0
 10
100.2381137773
 20
66.6270029058
 10
100.0861190706
 20
66.76089666
 10
99.8399485481
 20
67.1761560719
 10
99.7331299947
 20
67.7278887667
 10
99.7735843839
 20
68.3751727327
 10
99.9583140209
 20
69.0700040309
 10
100.2736159117
 20
69.7608496586
 10
100.696107775
 20
70.3964725805
 10
101.1944521117
 20
70.9297308403
 10
101.7316927214
 20
71.3210766109
 10
102.2679823927
 20
71.5414841011
 10
102.7635476717
 20
71.574607471
 10
103.0484050499
 20
71.492947332
  0
LWPOLYLINE
  5
368
330
1F
100
AcDbEntity
  8
0
  6
Continuous
 62
     8
370
    15
100
AcDbPolyline
 90
       10
 70
   128
 43
0.0
 10
97.2926575615
 20
73.7159196858
 10
96.8037923143
 20
73.4299950083
 10
96.3375928521
 20
72.9909239055
 10
95.9354829413
 20
72.4377187997
 10
95.6331912558
 20
71.8195349409
 10
95.4575785089
 20
71.1913010854
 10
95.4242482543
 20
70.6088383078
 10
95.5361626251
 20
70.1239003928
 10
95.7833762821
 20
69.7795768616
 10
95.8393973463
 20
69.7360556369
  0
LWPOLYLINE
  5
369
330
1F
100
AcDbEntity
  8
0
  6
Continuous
 62
     8
370
    15
100
AcDbPolyline
 90
        3
 70
   128
 43
0.0
 10
98.1553363789
 20
73.7478131607
 10
97.7607496807
 20
73.8232911467
 10
97.2926575615
 20
73.7159196858
  0
LINE
  5
36A
330
1F
100
AcDbEntity
  8
0
  6
Continuous
 62
     7
370
    15
100
AcDbLine
 10
393.9631322084
 20
262.7950796066
 30
0.0
 11
393.7631322084
 21
262.5950796066
 31
0.0
  0
LINE
  5
36B
330
1F
100
AcDbEntity
  8
0
  6
Continuous
 62
     7
370
    15
100
AcDbLine
 10
393.7631322084
 20
222.9950796066
 30
0.0
 11
393.9631322084
 21
222.7950796066
 31
0.0
  0
LINE
  5
36C
330
1F
100
AcDbEntity
  8
0
  6
Continuous
 62
     7
370
    15
100
AcDbLine
 10
393.9631322084
 20
222.7950796066
 30
0.0
 11
396.7631322084
 21
222.7950796066
 31
0.0
  0
LINE
  5
36D
330
1F
100
AcDbEntity
  8
0
  6
Continuous
 62
     7
370
    15
100
AcDbLine
 10
396.7631322084
 20
262.7950796066
 30
0.0
 11
393.9631322084
 21
262.7950796066
 31
0.0
  0
LINE
  5
36E
330
1F
100
AcDbEntity
  8
0
  6
Continuous
 62
     7
370
    15
100
AcDbLine
 10
396.7631322084
 20
222.7950796066
 30
0.0
 11
398.7631322084
 21
224.7950796066
 31
0.0
  0
LINE
  5
36F
330
1F
100
AcDbEntity
  8
0
  6
Continuous
 62
     7
370
    15
100
AcDbLine
 10
398.7631322084
 20
260.7950796066
 30
0.0
 11
396.7631322084
 21
262.7950796066
 31
0.0
  0
CIRCLE
  5
370
330
1F
100
AcDbEntity
  8
0
  6
Continuous
 62
     7
370
    15
100
AcDbCircle
 10
368.7631322084
 20
232.7950796066
 30
0.0
 40
2.827662302171291
  0
LINE
  5
371
330
1F
100
AcDbEntity
  8
0
  6
Continuous
 62
     7
370
    15
100
AcDbLine
 10
346.5631322084
 20
222.7950796066
 30
0.0
 11
393.4631322084
 21
222.7950796066
 31
0.0
  0
LINE
  5
372
330
1F
100
AcDbEntity
  8
0
  6
Continuous
 62
     7
370
    15
100
AcDbLine
 10
393.4631322084
 20
262.7950796066
 30
0.0
 11
346.5631322084
 21
262.7950796066
 31
0.0
  0
LINE
  5
373
330
1F
100
AcDbEntity
  8
0
  6
Continuous
 62
     7
370
    15
100
AcDbLine
 10
393.4631322084
 20
222.7950796066
 30
0.0
 11
393.7631322084
 21
223.0950796066
 31
0.0
  0
LINE
  5
374
330
1F
100
AcDbEntity
  8
0
  6
Continuous
 62
     7
370
    15
100
AcDbLine
 10
393.7631322084
 20
262.4950796066
 30
0.0
 11
393.4631322084
 21
262.7950796066
 31
0.0
  0
LINE
  5
375
330
1F
100
AcDbEntity
  8
0
  6
Continuous
 62
     7
370
    15
100
AcDbLine
 10
346.5631322084
 20
262.7950796066
 30
0.0
 11
346.2631322084
 21
262.4950796066
 31
0.0
  0
LINE
  5
376
330
1F
100
AcDbEntity
  8
0
  6
Continuous
 62
     7
370
    15
100
AcDbLine
 10
346.2631322084
 20
223.0950796066
 30
0.0
 11
346.5631322084
 21
222.7950796066
 31
0.0
  0
CIRCLE
  5
377
330
1F
100
AcDbEntity
  8
0
  6
Continuous
 62
     7
370
    15
100
AcDbCircle
 10
383.2631322084
 20
233.7950796066
 30
0.0
 40
6.300000000000007
  0
CIRCLE
  5
378
330
1F
100
AcDbEntity
  8
0
  6
Continuous
 62
     7
370
    15
100
AcDbCircle
 10
383.2631322084
 20
233.7950796066
 30
0.0
 40
6.250000000000018
  0
CIRCLE
  5
379
330
1F
100
AcDbEntity
  8
0
  6
Continuous
 62
     7
370
    15
100
AcDbCircle
 10
383.2631322084
 20
233.7950796066
 30
0.0
 40
8.900000000000004
  0
CIRCLE
  5
37A
330
1F
100
AcDbEntity
  8
0
  6
Continuous
 62
     7
370
    15
100
AcDbCircle
 10
383.2631322084
 20
233.7950796066
 30
0.0
 40
9.100000000000014
  0
CIRCLE
  5
37B
330
1F
100
AcDbEntity
  8
0
  6
Continuous
 62
     7
370
    15
100
AcDbCircle
 10
383.2631322084
 20
233.7950796066
 30
0.0
 40
5.249999999999986
  0
CIRCLE
  5
37C
330
1F
100
AcDbEntity
  8
0
  6
Continuous
 62
     7
370
    15
100
AcDbCircle
 10
383.2631322084
 20
233.7950796066
 30
0.0
 40
5.64999999999997
  0
CIRCLE
  5
37D
330
1F
100
AcDbEntity
  8
0
  6
Continuous
 62
     7
370
    15
100
AcDbCircle
 10
383.2631322084
 20
233.7950796066
 30
0.0
 40
5.950000000000027
  0
CIRCLE
  5
37E
330
1F
100
AcDbEntity
  8
0
  6
Continuous
 62
     7
370
    15
100
AcDbCircle
 10
383.2631322084
 20
233.7950796066
 30
0.0
 40
5.979999999999998
  0
CIRCLE
  5
37F
330
1F
100
AcDbEntity
  8
0
  6
Continuous
 62
     7
370
    15
100
AcDbCircle
 10
383.2631322084
 20
233.7950796066
 30
0.0
 40
5.000000000000034
  0
LINE
  5
380
330
1F
100
AcDbEntity
  8
0
  6
Continuous
 62
     7
370
    15
100
AcDbLine
 10
393.9631322084
 20
262.7950796066
 30
0.0
 11
393.9631322084
 21
222.7950796066
 31
0.0
  0
LINE
  5
381
330
1F
100
AcDbEntity
  8
0
  6
Continuous
 62
     7
370
    15
100
AcDbLine
 10
393.7631322084
 20
222.9950796066
 30
0.0
 11
393.7631322084
 21
262.5950796066
 31
0.0
  0
LINE
  5
382
330
1F
100
AcDbEntity
  8
0
  6
Continuous
 62
     7
370
    15
100
AcDbLine
 10
396.7631322084
 20
222.7950796066
 30
0.0
 11
396.7631322084
 21
262.7950796066
 31
0.0
  0
LINE
  5
383
330
1F
100
AcDbEntity
  8
0
  6
Continuous
 62
     7
370
    15
100
AcDbLine
 10
398.7631322084
 20
260.7950796066
 30
0.0
 11
398.7631322084
 21
224.7950796066
 31
0.0
  0
CIRCLE
  5
384
330
1F
100
AcDbEntity
  8
0
  6
Continuous
 62
     7
370
    15
100
AcDbCircle
 10
368.7631322084
 20
232.7950796066
 30
0.0
 40
1.322191443993406
  0
CIRCLE
  5
385
330
1F
100
AcDbEntity
  8
0
  6
Continuous
 62
     7
370
    15
100
AcDbCircle
 10
368.7631322084
 20
232.7950796066
 30
0.0
 40
2.319390753881827
  0
CIRCLE
  5
386
330
1F
100
AcDbEntity
  8
0
  6
Continuous
 62
     7
370
    15
100
AcDbCircle
 10
368.7631322084
 20
232.7950796066
 30
0.0
 40
2.813658851613573
  0
CIRCLE
  5
387
330
1F
100
AcDbEntity
  8
0
  6
Continuous
 62
     7
370
    15
100
AcDbCircle
 10
368.7631322084
 20
232.7950796066
 30
0.0
 40
3.000000000000018
  0
LINE
  5
388
330
1F
100
AcDbEntity
  8
0
  6
Continuous
 62
     7
370
    15
100
AcDbLine
 10
346.5631322084
 20
262.7950796066
 30
0.0
 11
346.5631322084
 21
222.7950796066
 31
0.0
  0
LINE
  5
389
330
1F
100
AcDbEntity
  8
0
  6
Continuous
 62
     7
370
    15
100
AcDbLine
 10
393.4631322084
 20
222.7950796066
 30
0.0
 11
393.4631322084
 21
262.7950796066
 31
0.0
  0
SPLINE
  5
38A
330
1F
100
AcDbEntity
  8
0
  6
Continuous
 62
     7
370
    15
100
AcDbSpline
210
0.0
220
0.0
230
1.0
 70
    11
 71
     3
 72
   108
 73
   104
 74
     0
 42
0.000000001
 43
0.00000001
 40
0.0
 40
0.0
 40
0.0
 40
0.0
 40
0.03125
 40
0.03125
 40
0.0468750000000001
 40
0.0468750000000001
 40
0.0625000000000001
 40
0.0625000000000001
 40
0.0937500000000002
 40
0.0937500000000002
 40
0.1093750000000002
 40
0.1093750000000002
 40
0.1250000000000002
 40
0.1250000000000002
 40
0.1406250000000003
 40
0.1406250000000003
 40
0.1562500000000003
 40
0.1562500000000003
 40
0.1875000000000002
 40
0.1875000000000002
 40
0.2031250000000001
 40
0.2031250000000001
 40
0.2187500000000001
 40
0.2187500000000001
 40
0.234375
 40
0.234375
 40
0.25
 40
0.25
 40
0.2812499999999999
 40
0.2812499999999999
 40
0.2968749999999999
 40
0.2968749999999999
 40
0.3124999999999998
 40
0.3124999999999998
 40
0.3437499999999997
 40
0.3437499999999997
 40
0.3593749999999997
 40
0.3593749999999997
 40
0.3749999999999997
 40
0.3749999999999997
 40
0.3906249999999996
 40
0.3906249999999996
 40
0.4062499999999996
 40
0.4062499999999996
 40
0.4218749999999996
 40
0.4218749999999996
 40
0.4374999999999995
 40
0.4374999999999995
 40
0.4687499999999995
 40
0.4687499999999995
 40
0.4843749999999995
 40
0.4843749999999995
 40
0.4999999999999994
 40
0.4999999999999994
 40
0.5312499999999994
 40
0.5312499999999994
 40
0.5624999999999994
 40
0.5624999999999994
 40
0.5937499999999996
 40
0.5937499999999996
 40
0.6093749999999996
 40
0.6093749999999996
 40
0.6249999999999996
 40
0.6249999999999996
 40
0.6406249999999996
 40
0.6406249999999996
 40
0.6562499999999996
 40
0.6562499999999996
 40
0.6640624999999996
 40
0.6640624999999996
 40
0.6718749999999996
 40
0.6718749999999996
 40
0.6874999999999997
 40
0.6874999999999997
 40
0.7031249999999998
 40
0.7031249999999998
 40
0.7187499999999998
 40
0.7187499999999998
 40
0.7343749999999998
 40
0.7343749999999998
 40
0.7499999999999998
 40
0.7499999999999998
 40
0.7812499999999998
 40
0.7812499999999998
 40
0.7968749999999998
 40
0.7968749999999998
 40
0.8124999999999998
 40
0.8124999999999998
 40
0.8437499999999999
 40
0.8437499999999999
 40
0.8749999999999999
 40
0.8749999999999999
 40
0.9062499999999999
 40
0.9062499999999999
 40
0.9218749999999999
 40
0.9218749999999999
 40
0.9374999999999999
 40
0.9374999999999999
 40
0.953125
 40
0.953125
 40
0.96875
 40
0.96875
 40
1.0
 40
1.0
 40
1.0
 40
1.0
 10
372.8285980442903
 20
242.7950796066
 30
0.0
 10
372.475385814362
 20
241.9780668109925
 30
0.0
 10
372.0441512725436
 20
241.2153806947954
 30
0.0
 10
371.2859691694579
 20
240.1469790770152
 30
0.0
 10
371.0145155266961
 20
239.8035668668226
 30
0.0
 10
370.4330665743956
 20
239.1425622726883
 30
0.0
 10
370.1261253803875
 20
238.8286625297401
 30
0.0
 10
369.1667608848077
 20
237.9436946078119
 30
0.0
 10
368.4726223897965
 20
237.4244587745571
 30
0.0
 10
367.3449459061981
 20
236.751385775951
 30
0.0
 10
366.9564732137846
 20
236.5462916413915
 30
0.0
 10
366.1668493252151
 20
236.1803079373854
 30
0.0
 10
365.7639034615963
 20
236.0183185711986
 30
0.0
 10
364.9413995476973
 20
235.7360833076072
 30
0.0
 10
364.5218427368953
 20
235.615835107988
 30
0.0
 10
363.6652396114915
 20
235.4183647399876
 30
0.0
 10
363.2261115895392
 20
235.3411404916442
 30
0.0
 10
361.9148541669592
 20
235.1811663118596
 30
0.0
 10
361.0396020172946
 20
235.166386522758
 30
0.0
 10
359.7251036176882
 20
235.281569637688
 30
0.0
 10
359.2838723541433
 20
235.3436917483754
 30
0.0
 10
358.4180785249378
 20
235.512563630435
 30
0.0
 10
357.9932113152335
 20
235.6189554059413
 30
0.0
 10
357.1587530784974
 20
235.8743222835365
 30
0.0
 10
356.7491630732835
 20
236.0232996557717
 30
0.0
 10
355.9449554220391
 20
236.3640815647648
 30
0.0
 10
355.5482500139765
 20
236.5571464477702
 30
0.0
 10
354.400822195625
 20
237.1916470489795
 30
0.0
 10
353.6902609701379
 20
237.6872014085596
 30
0.0
 10
352.7018248097305
 20
238.5401668172078
 30
0.0
 10
352.3837580079528
 20
238.8447020122533
 30
0.0
 10
351.7826243714826
 20
239.4840919139706
 30
0.0
 10
351.5007117434334
 20
239.8173079094007
 30
0.0
 10
350.7093573880852
 20
240.857024014819
 30
0.0
 10
350.2536252714305
 20
241.6030899855638
 30
0.0
 10
349.6834592877269
 20
242.8082299332183
 30
0.0
 10
349.5157158799566
 20
243.2179150835243
 30
0.0
 10
349.2259759328286
 20
244.0455337324276
 30
0.0
 10
349.1034562146928
 20
244.464578970057
 30
0.0
 10
348.9023885041249
 20
245.3127480737146
 30
0.0
 10
348.8238403581273
 20
245.7418725188852
 30
0.0
 10
348.7113361319716
 20
246.6101507745385
 30
0.0
 10
348.6782490534357
 20
247.0442292933945
 30
0.0
 10
348.6563037629215
 20
247.8996585873703
 30
0.0
 10
348.6671855097966
 20
248.3229933743548
 30
0.0
 10
348.7303434554231
 20
249.1610123478075
 30
0.0
 10
348.7828342461638
 20
249.5768395568564
 30
0.0
 10
348.999479731214
 20
250.8038751976441
 30
0.0
 10
349.2184151791554
 20
251.5772278486106
 30
0.0
 10
349.6417921245423
 20
252.6796899354028
 30
0.0
 10
349.7996630781503
 20
253.0389551309615
 30
0.0
 10
350.1425874843881
 20
253.7316476434772
 30
0.0
 10
350.3269165624003
 20
254.0640474982173
 30
0.0
 10
350.9155057291611
 20
255.0234757341799
 30
0.0
 10
351.3549331949947
 20
255.6130115044392
 30
0.0
 10
352.3236656919545
 20
256.7045355523884
 30
0.0
 10
352.856218998858
 20
257.208188043675
 30
0.0
 10
353.9881994440799
 20
258.1080885484964
 30
0.0
 10
354.5899647600047
 20
258.5083077674761
 30
0.0
 10
355.5619982659982
 20
259.037551626833
 30
0.0
 10
355.8977343383801
 20
259.2020281870189
 30
0.0
 10
356.5987250900824
 20
259.5061545553224
 30
0.0
 10
356.962711638857
 20
259.6450810692858
 30
0.0
 10
357.7137105018463
 20
259.8912673237993
 30
0.0
 10
358.1020246804183
 20
259.9991816809353
 30
0.0
 10
358.91306812632
 20
260.1809549109317
 30
0.0
 10
359.3331175642535
 20
260.2538227592677
 30
0.0
 10
359.974098269788
 20
260.3308165563257
 30
0.0
 10
360.1902378872512
 20
260.3512341726472
 30
0.0
 10
360.6279530378702
 20
260.3809711972737
 30
0.0
 10
360.8509194067986
 20
260.3902983255221
 30
0.0
 10
361.5179911337996
 20
260.4003508378543
 30
0.0
 10
361.9564450455731
 20
260.3834918602872
 30
0.0
 10
362.8220031034707
 20
260.3058240805135
 30
0.0
 10
363.2528562894781
 20
260.2440361896874
 30
0.0
 10
364.0754095633066
 20
260.0843683576051
 30
0.0
 10
364.4701228185254
 20
259.986643859898
 30
0.0
 10
365.2346442798633
 20
259.7594483564348
 30
0.0
 10
365.6060321711457
 20
259.6292539023891
 30
0.0
 10
366.3210171007299
 20
259.3417787784647
 30
0.0
 10
366.6632950998933
 20
259.1852444194091
 30
0.0
 10
367.6544248491344
 20
258.6790969370462
 30
0.0
 10
368.2682507428115
 20
258.2933245305295
 30
0.0
 10
369.1360603128862
 20
257.6392764302718
 30
0.0
 10
369.4172106716544
 20
257.4077224125299
 30
0.0
 10
369.9573540575952
 20
256.9220946573346
 30
0.0
 10
370.2160287601428
 20
256.6684767219837
 30
0.0
 10
370.9593884436945
 20
255.8739871534754
 30
0.0
 10
371.4118422013676
 20
255.2998101068237
 30
0.0
 10
372.2270074586218
 20
254.0489371281626
 30
0.0
 10
372.5911839776108
 20
253.3664885561635
 30
0.0
 10
373.1905752758907
 20
251.9304703307063
 30
0.0
 10
373.429614926186
 20
251.1730307401446
 30
0.0
 10
373.6811953796675
 20
249.9676750523832
 30
0.0
 10
373.746620649641
 20
249.5546379743953
 30
0.0
 10
373.8355792703268
 20
248.726263899495
 30
0.0
 10
373.859737170621
 20
248.3083046346225
 30
0.0
 10
373.8658626892406
 20
247.4648661439267
 30
0.0
 10
373.847839305934
 20
247.0393870128742
 30
0.0
 10
373.7667367039567
 20
246.1808309746905
 30
0.0
 10
373.7029402230208
 20
245.7446384462787
 30
0.0
 10
373.4433082392111
 20
244.4520508264389
 30
0.0
 10
373.1818102742187
 20
243.6120924022074
 30
0.0
 10
372.8285980442903
 20
242.7950796066
 30
0.0
  0
LINE
  5
38B
330
1F
100
AcDbEntity
  8
0
  6
Continuous
 62
     7
370
    15
100
AcDbLine
 10
346.2631322084
 20
223.0950796066
 30
0.0
 11
346.2631322084
 21
262.4950796066
 31
0.0
  0
ENDSEC
  0
SECTION
  2
OBJECTS
  0
DICTIONARY
  5
C
330
0
100
AcDbDictionary
281
     1
  3
ACAD_GROUP
350
D
  3
ACAD_LAYOUT
350
1A
  3
ACAD_MLINESTYLE
350
17
  3
ACAD_PLOTSETTINGS
350
19
  3
ACAD_PLOTSTYLENAME
350
E
  3
ACAD_SCALELIST
350
47
  0
DICTIONARY
  5
D
102
{ACAD_REACTORS
330
C
102
}
330
C
100
AcDbDictionary
281
     1
  0
DICTIONARY
  5
1A
102
{ACAD_REACTORS
330
C
102
}
330
C
100
AcDbDictionary
281
     1
  3
Layout1
350
1E
  3
Layout2
350
26
  3
Model
350
22
  0
DICTIONARY
  5
17
102
{ACAD_REACTORS
330
C
102
}
330
C
100
AcDbDictionary
281
     1
  3
Standard
350
18
  0
DICTIONARY
  5
19
102
{ACAD_REACTORS
330
C
102
}
330
C
100
AcDbDictionary
281
     1
  0
ACDBDICTIONARYWDFLT
  5
E
102
{ACAD_REACTORS
330
C
102
}
330
C
100
AcDbDictionary
281
     1
  3
Normal
350
F
100
AcDbDictionaryWithDefault
340
F
  0
DICTIONARY
  5
47
102
{ACAD_REACTORS
330
C
102
}
330
C
100
AcDbDictionary
281
     1
  3
A0
350
48
  3
A1
350
49
  3
A2
350
4A
  3
A3
350
4B
  3
A4
350
4C
  3
A5
350
4D
  3
A6
350
4E
  3
A7
350
4F
  3
A8
350
50
  3
A9
350
51
  3
B0
350
52
  3
B1
350
53
  3
B2
350
54
  3
B3
350
55
  3
B4
350
56
  3
B5
350
57
  3
B6
350
58
  3
B7
350
59
  3
B8
350
5A
  3
B9
350
5B
  3
C0
350
5C
  3
C1
350
5D
  3
C2
350
5E
  3
C3
350
5F
  3
C4
350
60
  3
C5
350
61
  3
C6
350
62
  3
C7
350
63
  3
C8
350
64
  3
C9
350
65
  3
D0
350
66
  3
D1
350
67
  3
D2
350
68
  0
LAYOUT
  5
1E
102
{ACAD_REACTORS
330
1A
102
}
330
1A
100
AcDbPlotSettings
  1

  2
none_device
  4

  6

 40
0.0
 41
0.0
 42
0.0
 43
0.0
 44
0.0
 45
0.0
 46
0.0
 47
0.0
 48
0.0
 49
0.0
140
0.0
141
0.0
142
1.0
143
1.0
 70
   688
 72
     1
 73
     0
 74
     5
  7

 75
    16
147
1.0
148
0.0
149
0.0
100
AcDbLayout
  1
Layout1
 70
     1
 71
     1
 10
0.0
 20
0.0
 11
420.0
 21
297.0
 12
0.0
 22
0.0
 32
0.0
 14
1.0000000000E+20
 24
1.0000000000E+20
 34
1.0000000000E+20
 15
-1.0000000000E+20
 25
-1.0000000000E+20
 35
-1.0000000000E+20
146
0.0
 13
0.0
 23
0.0
 33
0.0
 16
1.0
 26
0.0
 36
0.0
 17
0.0
 27
1.0
 37
0.0
 76
     0
330
1B
  0
LAYOUT
  5
26
102
{ACAD_REACTORS
330
1A
102
}
330
1A
100
AcDbPlotSettings
  1

  2
none_device
  4

  6

 40
0.0
 41
0.0
 42
0.0
 43
0.0
 44
0.0
 45
0.0
 46
0.0
 47
0.0
 48
0.0
 49
0.0
140
0.0
141
0.0
142
1.0
143
1.0
 70
   688
 72
     1
 73
     0
 74
     5
  7

 75
    16
147
1.0
148
0.0
149
0.0
100
AcDbLayout
  1
Layout2
 70
     1
 71
     2
 10
0.0
 20
0.0
 11
0.0
 21
0.0
 12
0.0
 22
0.0
 32
0.0
 14
0.0
 24
0.0
 34
0.0
 15
0.0
 25
0.0
 35
0.0
146
0.0
 13
0.0
 23
0.0
 33
0.0
 16
1.0
 26
0.0
 36
0.0
 17
0.0
 27
1.0
 37
0.0
 76
     0
330
23
  0
LAYOUT
  5
22
102
{ACAD_REACTORS
330
1A
102
}
330
1A
100
AcDbPlotSettings
  1

  2
none_device
  4
Letter_(8.50_x_11.00_Inches)
  6

 40
6.35
 41
6.35
 42
6.35000508
 43
6.35000508
 44
215.9
 45
279.4
 46
0.0
 47
0.0
 48
0.0
 49
0.0
140
0.0
141
0.0
142
1.0
143
1.0
 70
  1712
 72
     1
 73
     0
 74
     0
  7

 75
     0
147
1.0
148
0.0
149
0.0
100
AcDbLayout
  1
Model
 70
     1
 71
     0
 10
0.0
 20
0.0
 11
431.8
 21
279.4
 12
0.0
 22
0.0
 32
0.0
 14
0.0
 24
0.0
 34
0.0
 15
431.8
 25
279.4
 35
0.0
146
0.0
 13
0.0
 23
0.0
 33
0.0
 16
1.0
 26
0.0
 36
0.0
 17
0.0
 27
1.0
 37
0.0
 76
     0
330
1F
331
29
  0
MLINESTYLE
  5
18
102
{ACAD_REACTORS
330
17
102
}
330
17
100
AcDbMlineStyle
  2
Standard
 70
     0
  3

 62
   256
 51
90.0
 52
90.0
 71
     2
 49
0.5
 62
   256
  6
BYLAYER
 49
-0.5
 62
   256
  6
BYLAYER
  0
ACDBPLACEHOLDER
  5
F
102
{ACAD_REACTORS
330
E
102
}
330
E
  0
SCALE
  5
48
102
{ACAD_REACTORS
330
47
102
}
330
47
100
AcDbScale
 70
     0
300
1:1
140
1.0
141
1.0
290
     1
  0
SCALE
  5
49
102
{ACAD_REACTORS
330
47
102
}
330
47
100
AcDbScale
 70
     0
300
1:2
140
1.0
141
2.0
290
     0
  0
SCALE
  5
4A
102
{ACAD_REACTORS
330
47
102
}
330
47
100
AcDbScale
 70
     0
300
1:4
140
1.0
141
4.0
290
     0
  0
SCALE
  5
4B
102
{ACAD_REACTORS
330
47
102
}
330
47
100
AcDbScale
 70
     0
300
1:5
140
1.0
141
5.0
290
     0
  0
SCALE
  5
4C
102
{ACAD_REACTORS
330
47
102
}
330
47
100
AcDbScale
 70
     0
300
1:8
140
1.0
141
8.0
290
     0
  0
SCALE
  5
4D
102
{ACAD_REACTORS
330
47
102
}
330
47
100
AcDbScale
 70
     0
300
1:10
140
1.0
141
10.0
290
     0
  0
SCALE
  5
4E
102
{ACAD_REACTORS
330
47
102
}
330
47
100
AcDbScale
 70
     0
300
1:16
140
1.0
141
16.0
290
     0
  0
SCALE
  5
4F
102
{ACAD_REACTORS
330
47
102
}
330
47
100
AcDbScale
 70
     0
300
1:20
140
1.0
141
20.0
290
     0
  0
SCALE
  5
50
102
{ACAD_REACTORS
330
47
102
}
330
47
100
AcDbScale
 70
     0
300
1:30
140
1.0
141
30.0
290
     0
  0
SCALE
  5
51
102
{ACAD_REACTORS
330
47
102
}
330
47
100
AcDbScale
 70
     0
300
1:40
140
1.0
141
40.0
290
     0
  0
SCALE
  5
52
102
{ACAD_REACTORS
330
47
102
}
330
47
100
AcDbScale
 70
     0
300
1:50
140
1.0
141
50.0
290
     0
  0
SCALE
  5
53
102
{ACAD_REACTORS
330
47
102
}
330
47
100
AcDbScale
 70
     0
300
1:100
140
1.0
141
100.0
290
     0
  0
SCALE
  5
54
102
{ACAD_REACTORS
330
47
102
}
330
47
100
AcDbScale
 70
     0
300
2:1
140
2.0
141
1.0
290
     0
  0
SCALE
  5
55
102
{ACAD_REACTORS
330
47
102
}
330
47
100
AcDbScale
 70
     0
300
4:1
140
4.0
141
1.0
290
     0
  0
SCALE
  5
56
102
{ACAD_REACTORS
330
47
102
}
330
47
100
AcDbScale
 70
     0
300
8:1
140
8.0
141
1.0
290
     0
  0
SCALE
  5
57
102
{ACAD_REACTORS
330
47
102
}
330
47
100
AcDbScale
 70
     0
300
10:1
140
10.0
141
1.0
290
     0
  0
SCALE
  5
58
102
{ACAD_REACTORS
330
47
102
}
330
47
100
AcDbScale
 70
     0
300
100:1
140
100.0
141
1.0
290
     0
  0
SCALE
  5
59
102
{ACAD_REACTORS
330
47
102
}
330
47
100
AcDbScale
 70
     0
300
1/128" = 1'-0"
140
0.0078125
141
12.0
290
     0
  0
SCALE
  5
5A
102
{ACAD_REACTORS
330
47
102
}
330
47
100
AcDbScale
 70
     0
300
1/64" = 1'-0"
140
0.015625
141
12.0
290
     0
  0
SCALE
  5
5B
102
{ACAD_REACTORS
330
47
102
}
330
47
100
AcDbScale
 70
     0
300
1/32" = 1'-0"
140
0.03125
141
12.0
290
     0
  0
SCALE
  5
5C
102
{ACAD_REACTORS
330
47
102
}
330
47
100
AcDbScale
 70
     0
300
1/16" = 1'-0"
140
0.0625
141
12.0
290
     0
  0
SCALE
  5
5D
102
{ACAD_REACTORS
330
47
102
}
330
47
100
AcDbScale
 70
     0
300
3/32" = 1'-0"
140
0.09375
141
12.0
290
     0
  0
SCALE
  5
5E
102
{ACAD_REACTORS
330
47
102
}
330
47
100
AcDbScale
 70
     0
300
1/8" = 1'-0"
140
0.125
141
12.0
290
     0
  0
SCALE
  5
5F
102
{ACAD_REACTORS
330
47
102
}
330
47
100
AcDbScale
 70
     0
300
3/16" = 1'-0"
140
0.1875
141
12.0
290
     0
  0
SCALE
  5
60
102
{ACAD_REACTORS
330
47
102
}
330
47
100
AcDbScale
 70
     0
300
1/4" = 1'-0"
140
0.25
141
12.0
290
     0
  0
SCALE
  5
61
102
{ACAD_REACTORS
330
47
102
}
330
47
100
AcDbScale
 70
     0
300
3/8" = 1'-0"
140
0.375
141
12.0
290
     0
  0
SCALE
  5
62
102
{ACAD_REACTORS
330
47
102
}
330
47
100
AcDbScale
 70
     0
300
1/2" = 1'-0"
140
0.5
141
12.0
290
     0
  0
SCALE
  5
63
102
{ACAD_REACTORS
330
47
102
}
330
47
100
AcDbScale
 70
     0
300
3/4" = 1'-0"
140
0.75
141
12.0
290
     0
  0
SCALE
  5
64
102
{ACAD_REACTORS
330
47
102
}
330
47
100
AcDbScale
 70
     0
300
1" = 1'-0"
140
1.0
141
12.0
290
     0
  0
SCALE
  5
65
102
{ACAD_REACTORS
330
47
102
}
330
47
100
AcDbScale
 70
     0
300
1-1/2" = 1'-0"
140
1.5
141
12.0
290
     0
  0
SCALE
  5
66
102
{ACAD_REACTORS
330
47
102
}
330
47
100
AcDbScale
 70
     0
300
3" = 1'-0"
140
3.0
141
12.0
290
     0
  0
SCALE
  5
67
102
{ACAD_REACTORS
330
47
102
}
330
47
100
AcDbScale
 70
     0
300
6" = 1'-0"
140
6.0
141
12.0
290
     0
  0
SCALE
  5
68
102
{ACAD_REACTORS
330
47
102
}
330
47
100
AcDbScale
 70
     0
300
1'-0" = 1'-0"
140
12.0
141
12.0
290
     0
  0
ENDSEC
  0
EOF
